  0
SECTION
  2
HEADER
  9
$ACADVER
  1
AC1015
  9
$ACADMAINTVER
 70
    18
  9
$DWGCODEPAGE
  3
ANSI_1252
  9
$INSBASE
 10
0.0
 20
0.0
 30
0.0
  9
$EXTMIN
 10
-250.0426916145284
 20
-93.896436749837
 30
-0.0015258207003583
  9
$EXTMAX
 10
218.0389725852747
 20
182.7753155228858
 30
0.0000000349246037
  9
$LIMMIN
 10
0.0
 20
0.0
  9
$LIMMAX
 10
1189.0
 20
840.9999999999998
  9
$ORTHOMODE
 70
     0
  9
$REGENMODE
 70
     1
  9
$FILLMODE
 70
     1
  9
$QTEXTMODE
 70
     0
  9
$MIRRTEXT
 70
     0
  9
$LTSCALE
 40
1.0
  9
$ATTMODE
 70
     1
  9
$TEXTSIZE
 40
0.2
  9
$TRACEWID
 40
0.05
  9
$TEXTSTYLE
  7
STANDARD
  9
$CLAYER
  8
0
  9
$CELTYPE
  6
ByLayer
  9
$CECOLOR
 62
   256
  9
$CELTSCALE
 40
1.0
  9
$DISPSILH
 70
     0
  9
$DIMSCALE
 40
1.0
  9
$DIMASZ
 40
1800.0
  9
$DIMEXO
 40
0.0625
  9
$DIMDLI
 40
0.38
  9
$DIMRND
 40
0.0
  9
$DIMDLE
 40
0.0
  9
$DIMEXE
 40
0.18
  9
$DIMTP
 40
0.0
  9
$DIMTM
 40
0.0
  9
$DIMTXT
 40
349.9999940395354
  9
$DIMCEN
 40
0.09
  9
$DIMTSZ
 40
0.0
  9
$DIMTOL
 70
     0
  9
$DIMLIM
 70
     0
  9
$DIMTIH
 70
     1
  9
$DIMTOH
 70
     1
  9
$DIMSE1
 70
     0
  9
$DIMSE2
 70
     0
  9
$DIMTAD
 70
     0
  9
$DIMZIN
 70
     0
  9
$DIMBLK
  1

  9
$DIMASO
 70
     1
  9
$DIMSHO
 70
     1
  9
$DIMPOST
  1

  9
$DIMAPOST
  1

  9
$DIMALT
 70
     0
  9
$DIMALTD
 70
     2
  9
$DIMALTF
 40
25.4
  9
$DIMLFAC
 40
1.0
  9
$DIMTOFL
 70
     0
  9
$DIMTVP
 40
0.0
  9
$DIMTIX
 70
     0
  9
$DIMSOXD
 70
     0
  9
$DIMSAH
 70
     0
  9
$DIMBLK1
  1

  9
$DIMBLK2
  1

  9
$DIMSTYLE
  2
STANDARD
  9
$DIMCLRD
 70
     0
  9
$DIMCLRE
 70
     0
  9
$DIMCLRT
 70
     0
  9
$DIMTFAC
 40
1.0
  9
$DIMGAP
 40
0.09
  9
$DIMJUST
 70
     0
  9
$DIMSD1
 70
     0
  9
$DIMSD2
 70
     0
  9
$DIMTOLJ
 70
     1
  9
$DIMTZIN
 70
     0
  9
$DIMALTZ
 70
     0
  9
$DIMALTTZ
 70
     0
  9
$DIMUPT
 70
     0
  9
$DIMDEC
 70
     4
  9
$DIMTDEC
 70
     4
  9
$DIMALTU
 70
     2
  9
$DIMALTTD
 70
     2
  9
$DIMTXSTY
  7
STANDARD
  9
$DIMAUNIT
 70
     0
  9
$DIMADEC
 70
     0
  9
$DIMALTRND
 40
0.0
  9
$DIMAZIN
 70
     0
  9
$DIMDSEP
 70
    46
  9
$DIMATFIT
 70
     3
  9
$DIMFRAC
 70
     0
  9
$DIMLDRBLK
  1

  9
$DIMLUNIT
 70
     2
  9
$DIMLWD
 70
    -2
  9
$DIMLWE
 70
    -2
  9
$DIMTMOVE
 70
     0
  9
$LUNITS
 70
     2
  9
$LUPREC
 70
     4
  9
$SKETCHINC
 40
0.1
  9
$FILLETRAD
 40
0.0
  9
$AUNITS
 70
     0
  9
$AUPREC
 70
     0
  9
$MENU
  1
.
  9
$ELEVATION
 40
0.0
  9
$PELEVATION
 40
0.0
  9
$THICKNESS
 40
0.0
  9
$LIMCHECK
 70
     0
  9
$CHAMFERA
 40
0.0
  9
$CHAMFERB
 40
0.0
  9
$CHAMFERC
 40
0.0
  9
$CHAMFERD
 40
0.0
  9
$SKPOLY
 70
     0
  9
$TDCREATE
 40
2454871.497639329
  9
$TDUCREATE
 40
2454871.455972662
  9
$TDUPDATE
 40
2456239.697105371
  9
$TDUUPDATE
 40
2456239.655438704
  9
$TDINDWG
 40
0.0129944097
  9
$TDUSRTIMER
 40
0.0129944097
  9
$USRTIMER
 70
     1
  9
$ANGBASE
 50
0.0
  9
$ANGDIR
 70
     0
  9
$PDMODE
 70
     0
  9
$PDSIZE
 40
0.0
  9
$PLINEWID
 40
0.0
  9
$SPLFRAME
 70
     0
  9
$SPLINETYPE
 70
     6
  9
$SPLINESEGS
 70
     8
  9
$HANDSEED
  5
228
  9
$SURFTAB1
 70
     6
  9
$SURFTAB2
 70
     6
  9
$SURFTYPE
 70
     6
  9
$SURFU
 70
     6
  9
$SURFV
 70
     6
  9
$UCSBASE
  2

  9
$UCSNAME
  2

  9
$UCSORG
 10
0.0
 20
0.0
 30
0.0
  9
$UCSXDIR
 10
1.0
 20
0.0
 30
0.0
  9
$UCSYDIR
 10
0.0
 20
1.0
 30
0.0
  9
$UCSORTHOREF
  2

  9
$UCSORTHOVIEW
 70
     0
  9
$UCSORGTOP
 10
0.0
 20
0.0
 30
0.0
  9
$UCSORGBOTTOM
 10
0.0
 20
0.0
 30
0.0
  9
$UCSORGLEFT
 10
0.0
 20
0.0
 30
0.0
  9
$UCSORGRIGHT
 10
0.0
 20
0.0
 30
0.0
  9
$UCSORGFRONT
 10
0.0
 20
0.0
 30
0.0
  9
$UCSORGBACK
 10
0.0
 20
0.0
 30
0.0
  9
$PUCSBASE
  2

  9
$PUCSNAME
  2

  9
$PUCSORG
 10
0.0
 20
0.0
 30
0.0
  9
$PUCSXDIR
 10
1.0
 20
0.0
 30
0.0
  9
$PUCSYDIR
 10
0.0
 20
1.0
 30
0.0
  9
$PUCSORTHOREF
  2

  9
$PUCSORTHOVIEW
 70
     0
  9
$PUCSORGTOP
 10
0.0
 20
0.0
 30
0.0
  9
$PUCSORGBOTTOM
 10
0.0
 20
0.0
 30
0.0
  9
$PUCSORGLEFT
 10
0.0
 20
0.0
 30
0.0
  9
$PUCSORGRIGHT
 10
0.0
 20
0.0
 30
0.0
  9
$PUCSORGFRONT
 10
0.0
 20
0.0
 30
0.0
  9
$PUCSORGBACK
 10
0.0
 20
0.0
 30
0.0
  9
$USERI1
 70
     0
  9
$USERI2
 70
     0
  9
$USERI3
 70
     0
  9
$USERI4
 70
     0
  9
$USERI5
 70
     0
  9
$USERR1
 40
0.0
  9
$USERR2
 40
0.0
  9
$USERR3
 40
0.0
  9
$USERR4
 40
0.0
  9
$USERR5
 40
0.0
  9
$WORLDVIEW
 70
     1
  9
$SHADEDGE
 70
     3
  9
$SHADEDIF
 70
    70
  9
$TILEMODE
 70
     1
  9
$MAXACTVP
 70
    64
  9
$PINSBASE
 10
0.0
 20
0.0
 30
0.0
  9
$PLIMCHECK
 70
     0
  9
$PEXTMIN
 10
0.0
 20
0.0
 30
0.0
  9
$PEXTMAX
 10
1189.0
 20
840.9999999999998
 30
0.0
  9
$PLIMMIN
 10
0.0
 20
0.0
  9
$PLIMMAX
 10
1189.0
 20
840.9999999999998
  9
$UNITMODE
 70
     0
  9
$VISRETAIN
 70
     1
  9
$PLINEGEN
 70
     0
  9
$PSLTSCALE
 70
     1
  9
$TREEDEPTH
 70
  3020
  9
$CMLSTYLE
  2
Standard
  9
$CMLJUST
 70
     0
  9
$CMLSCALE
 40
1.0
  9
$PROXYGRAPHICS
 70
     1
  9
$MEASUREMENT
 70
     1
  9
$CELWEIGHT
370
    -1
  9
$ENDCAPS
280
     0
  9
$JOINSTYLE
280
     0
  9
$LWDISPLAY
290
     0
  9
$INSUNITS
 70
     4
  9
$HYPERLINKBASE
  1

  9
$STYLESHEET
  1

  9
$XEDIT
290
     1
  9
$CEPSNTYPE
380
     0
  9
$PSTYLEMODE
290
     1
  9
$FINGERPRINTGUID
  2
{F117129E-36FE-48FF-BB61-CA0013D7DB33}
  9
$VERSIONGUID
  2
{63CBC7CE-335F-4D51-80CA-AD872A5C9848}
  9
$EXTNAMES
290
     1
  9
$PSVPSCALE
 40
0.0
  9
$OLESTARTUP
290
     0
  0
ENDSEC
  0
SECTION
  2
CLASSES
  0
CLASS
  1
ACDBDICTIONARYWDFLT
  2
AcDbDictionaryWithDefault
  3
ObjectDBX Classes
 90
        0
280
     0
281
     0
  0
CLASS
  1
MATERIAL
  2
AcDbMaterial
  3
ObjectDBX Classes
 90
     1153
280
     0
281
     0
  0
CLASS
  1
VISUALSTYLE
  2
AcDbVisualStyle
  3
ObjectDBX Classes
 90
     4095
280
     0
281
     0
  0
CLASS
  1
SCALE
  2
AcDbScale
  3
ObjectDBX Classes
 90
     1153
280
     0
281
     0
  0
CLASS
  1
TABLESTYLE
  2
AcDbTableStyle
  3
ObjectDBX Classes
 90
     4095
280
     0
281
     0
  0
CLASS
  1
MLEADERSTYLE
  2
AcDbMLeaderStyle
  3
ACDB_MLEADERSTYLE_CLASS
 90
     4095
280
     0
281
     0
  0
CLASS
  1
SORTENTSTABLE
  2
AcDbSortentsTable
  3
ObjectDBX Classes
 90
        0
280
     0
281
     0
  0
CLASS
  1
CELLSTYLEMAP
  2
AcDbCellStyleMap
  3
ObjectDBX Classes
 90
     1152
280
     0
281
     0
  0
CLASS
  1
DICTIONARYVAR
  2
AcDbDictionaryVar
  3
ObjectDBX Classes
 90
        0
280
     0
281
     0
  0
CLASS
  1
ACME_DOCUMENT
  2
AcMeDbDoc
  3
AcMeServices
 90
    33792
280
     1
281
     0
  0
CLASS
  1
AMGSETTINGSOBJ
  2
AmgSettingsObj
  3
"AcadM|Product Description: AutoCAD Mechanical|Company: Autodesk, Inc."
 90
    33792
280
     1
281
     0
  0
CLASS
  1
ACMESCOPE
  2
AcMeScope
  3
AcMeServices
 90
    33792
280
     1
281
     0
  0
CLASS
  1
ACMECOMMANDHISTORY
  2
AcMeCommandHistory
  3
AcMeServices
 90
    33792
280
     1
281
     0
  0
CLASS
  1
ACIMSYSVARMAN
  2
AcImSysVarManager
  3
AcMeServices
 90
    33792
280
     1
281
     0
  0
CLASS
  1
ACIMINTSYSVAR
  2
AcImIntSysVar
  3
AcMeServices
 90
    33792
280
     1
281
     0
  0
CLASS
  1
ACMEDRAWINGMAN
  2
AcMeDrawingMan
  3
AcMeServices
 90
    33792
280
     1
281
     0
  0
CLASS
  1
ACMEVIEW
  2
AcMeView
  3
AcMeServices
 90
    33792
280
     1
281
     0
  0
CLASS
  1
ACDBENTITYCACHE
  2
AcMeEntityCache
  3
AcMeServices
 90
    33792
280
     1
281
     0
  0
CLASS
  1
GSMANAGER
  2
AcMeGSManager
  3
AcMeServices
 90
    33792
280
     1
281
     0
  0
CLASS
  1
AMDTINTERNALREACTOR
  2
AmdtInternalReactor
  3
AcMeServices
 90
    33792
280
     1
281
     0
  0
CLASS
  1
ACMESTATEMGR
  2
AcMeStateMgr
  3
AcMeServices
 90
    33792
280
     1
281
     0
  0
CLASS
  1
ACGREFMASTER
  2
AcGrefMaster
  3
AcAttribServices
 90
    33792
280
     1
281
     0
  0
CLASS
  1
AM_DRAWING_MGR
  2
AcDmDwgMgr
  3
AcMechDwgViewMgmt
 90
    33792
280
     1
281
     0
  0
CLASS
  1
AM_DWG_DOCUMENT
  2
AcDmDwgDocument
  3
AcMechDwgViewMgmt
 90
    33792
280
     1
281
     0
  0
CLASS
  1
AM_DWG_SHEET
  2
AcDmSheet
  3
AcMechDwgViewMgmt
 90
    33792
280
     1
281
     0
  0
CLASS
  1
AM_VIEWDIMPARMAP
  2
AcDmViewDimParMap
  3
AcMechDwgViewMgmt
 90
    33792
280
     1
281
     0
  0
CLASS
  1
ACIMREALSYSVAR
  2
AcImRealSysVar
  3
AcMeServices
 90
    33792
280
     1
281
     0
  0
CLASS
  1
AM_DWGMGR_NAME
  2
AcDmDwgMgrName
  3
AcMechDwgViewMgmt
 90
    33792
280
     1
281
     0
  0
CLASS
  1
ACME_DATABASE
  2
AcMeDbDatabase
  3
AcMeServices
 90
    33792
280
     1
281
     0
  0
CLASS
  1
ACRFINSADJUSTERMGR
  2
AcRfInsAdjusterMgr
  3
AcMeServices
 90
    33792
280
     1
281
     0
  0
CLASS
  1
ACGREFACADMASTER
  2
AcGrefacadMaster
  3
AcGrefServices
 90
    33792
280
     1
281
     0
  0
CLASS
  1
AMDTMENUSTATEMGR
  2
AmdtMenuStateMgr
  3
McadcomServices
 90
    33792
280
     1
281
     0
  0
CLASS
  1
AMDTMCOMMENUSTATE
  2
AmdtMcomMenuState
  3
McadcomServices
 90
    33792
280
     1
281
     0
  0
CLASS
  1
AMIMASTER
  2
AmiMaster
  3
AmiServices
 90
    33792
280
     1
281
     0
  0
CLASS
  1
MAPIAMMOUDLE
  2
MApiAmModule
  3
MApiAmServices
 90
    33792
280
     1
281
     0
  0
CLASS
  1
ACIMSTRSYSVAR
  2
AcImStrSysVar
  3
AcMeServices
 90
    33792
280
     1
281
     0
  0
CLASS
  1
AMDTADMENUSTATE
  2
AmdtAdMenuState
  3
DesignerServices
 90
    33792
280
     1
281
     0
  0
CLASS
  1
ADAPPL
  2
AcAdAppl
  3
DesignerServices
 90
    33792
280
     1
281
     0
  0
CLASS
  1
DEPMGR
  2
AcAdDepMgr
  3
DesignerServices
 90
    33792
280
     1
281
     0
  0
CLASS
  1
PARAMMGR
  2
AcAdParamMgr
  3
DesignerServices
 90
    33792
280
     1
281
     0
  0
CLASS
  1
PARAMSCOPE
  2
AcAdParamScope
  3
DesignerServices
 90
    33792
280
     1
281
     0
  0
CLASS
  1
NAMEDAPPL
  2
AcAdNamedAppl
  3
DesignerServices
 90
    33792
280
     1
281
     0
  0
CLASS
  1
AMDTDMMENUSTATE
  2
AmdtDmMenuState
  3
AcMechDwgViewMgmt
 90
    33792
280
     1
281
     0
  0
CLASS
  1
AMDTAMMENUSTATE
  2
AmdtAmMenuState
  3
DesignerAssemblies
 90
    33792
280
     1
281
     0
  0
CLASS
  1
ACAMPROJECT
  2
AcAmProject
  3
DesignerAssemblies
 90
    33792
280
     1
281
     0
  0
CLASS
  1
ACAMGRCOMPDEF
  2
AcAmGrCompDef
  3
DesignerAssemblies
 90
    33792
280
     1
281
     0
  0
CLASS
  1
ACCMCONTEXT
  2
AcCmContext
  3
DesignerAssemblies
 90
    33792
280
     1
281
     0
  0
CLASS
  1
ACAMCOMPDEF
  2
AcAmCompDef
  3
DesignerAssemblies
 90
    33792
280
     1
281
     0
  0
CLASS
  1
ACAMCOMPDEFMGR
  2
AcAmCompDefMgr
  3
DesignerAssemblies
 90
    33792
280
     1
281
     0
  0
CLASS
  1
AMCONTEXTMGR
  2
AcAmContextMgr
  3
DesignerAssemblies
 90
    33792
280
     1
281
     0
  0
CLASS
  1
ACAMCONTEXTMODELER
  2
AcAmContextModeler
  3
DesignerAssemblies
 90
    33792
280
     1
281
     0
  0
CLASS
  1
ACMDATADICTIONARY
  2
AcmDataDictionary
  3
"AcmSymBB|Product Description: AutoCAD Mechanical|Company: Autodesk, Inc."
 90
    33792
280
     1
281
     0
  0
CLASS
  1
CATALOGSTATE
  2
AcAmCatalogState
  3
DesignerAssemblies
 90
    33792
280
     1
281
     0
  0
CLASS
  1
ACAMGRCOMPDEFSET
  2
AcAmGrCompDefSet
  3
DesignerAssemblies
 90
    33792
280
     1
281
     0
  0
CLASS
  1
AMDTBROWSERDBTAB
  2
AmdtBrowserDbTab
  3
McadcomServices
 90
    33792
280
     1
281
     0
  0
CLASS
  1
CBROWSERAPPOBJECT
  2
CBrowserAppObject
  3
McadcomServices
 90
    33792
280
     1
281
     0
  0
CLASS
  1
DM_PLACEHOLDER
  2
AcDmSelsetPlaceholder
  3
AcMechDwgViewMgmt
 90
    33792
280
     1
281
     0
  0
CLASS
  1
EXACXREFPANELOBJECT
  2
ExAcXREFPanelObject
  3
EXAC_ESW
 90
    33793
280
     1
281
     0
  0
CLASS
  1
NPOCOLLECTION
  2
AcDbImpNonPersistentObjectsCollection
  3
ObjectDBX Classes
 90
    33921
280
     0
281
     0
  0
CLASS
  1
ACMSTANDARDANSI
  2
AcmStandardANSI
  3
"Amdt_StdImp|Product Description: AutoCAD Mechanical|Company: Autodesk, Inc."
 90
    33792
280
     1
281
     0
  0
CLASS
  1
ACMSURFSTANDARDANSI
  2
AcmSurfTextStdANSI
  3
"Amdt_StdImp|Product Description: AutoCAD Mechanical|Company: Autodesk, Inc."
 90
    33792
280
     1
281
     0
  0
CLASS
  1
ACMFCFSTANDARDANSI
  2
AcmFCFStdANSI
  3
"Amdt_StdImp|Product Description: AutoCAD Mechanical|Company: Autodesk, Inc."
 90
    33792
280
     1
281
     0
  0
CLASS
  1
ACMWELDSTANDARDANSI
  2
AcmWeldingStdANSI
  3
"Amdt_StdImp|Product Description: AutoCAD Mechanical|Company: Autodesk, Inc."
 90
    33792
280
     1
281
     0
  0
CLASS
  1
ACMIDSTANDARDANSI
  2
AcmIdStdANSI
  3
"Amdt_StdImp|Product Description: AutoCAD Mechanical|Company: Autodesk, Inc."
 90
    33792
280
     1
281
     0
  0
CLASS
  1
ACMDATUMSTANDARDANSI
  2
AcmDatumStdANSI
  3
"Amdt_StdImp|Product Description: AutoCAD Mechanical|Company: Autodesk, Inc."
 90
    33792
280
     1
281
     0
  0
CLASS
  1
ACMBOMSTANDARDANSI
  2
AcmBOMStdANSI
  3
"Amdt_StdImp|Product Description: AutoCAD Mechanical|Company: Autodesk, Inc."
 90
    33792
280
     1
281
     0
  0
CLASS
  1
ACMDETAILSTANDARDANSI
  2
AmdtDetailSymStdANSI
  3
"Amdt_StdImp|Product Description: AutoCAD Mechanical|Company: Autodesk, Inc."
 90
    33792
280
     1
281
     0
  0
CLASS
  1
ACMSECTIONSTANDARDANSI
  2
AmdtSectionSymStdANSI
  3
"Amdt_StdImp|Product Description: AutoCAD Mechanical|Company: Autodesk, Inc."
 90
    33792
280
     1
281
     0
  0
CLASS
  1
ACMCENTERLINESTANDARDANSI
  2
AmdtCenterLineStdANSI
  3
"Amdt_StdImp|Product Description: AutoCAD Mechanical|Company: Autodesk, Inc."
 90
    33792
280
     1
281
     0
  0
CLASS
  1
ACMTHREADLINESTANDARDANSI
  2
AmdtThreadLineStdANSI
  3
"Amdt_StdImp|Product Description: AutoCAD Mechanical|Company: Autodesk, Inc."
 90
    33792
280
     1
281
     0
  0
CLASS
  1
ACMNOTESTANDARDANSI
  2
AmdtNoteStdANSI
  3
"Amdt_StdImp|Product Description: AutoCAD Mechanical|Company: Autodesk, Inc."
 90
    33792
280
     1
281
     0
  0
CLASS
  1
ACMTAPERSTANDARDANSI
  2
AcmTaperStdANSI
  3
"Amdt_StdImp|Product Description: AutoCAD Mechanical|Company: Autodesk, Inc."
 90
    33792
280
     1
281
     0
  0
CLASS
  1
ACMANOOTATIONVIEWSTANDARDANSI
  2
AmdtAnViewStdANSI
  3
"Amdt_StdImp|Product Description: AutoCAD Mechanical|Company: Autodesk, Inc."
 90
    33792
280
     1
281
     0
  0
CLASS
  1
ACAMGLAYSTD
  2
AcAmgLayStd
  3
"AmgLay|Product Description: AutoCAD Mechanical|Company: Autodesk, Inc."
 90
    33792
280
     1
281
     0
  0
CLASS
  1
ACAMGDIMSTD
  2
AcAmgDimStd
  3
"AmgDim|Product Description: AutoCAD Mechanical|Company: Autodesk, Inc."
 90
    33792
280
     1
281
     0
  0
CLASS
  1
AMGOBJPROPCFG
  2
AmgObjPropCfg
  3
"AmgLay|Product Description: AutoCAD Mechanical|Company: Autodesk, Inc."
 90
    33793
280
     1
281
     0
  0
CLASS
  1
ACAMGHOLECHARTSTDANSI
  2
AcAmgHoleChartStdANSI
  3
AmgDim|Product Description: AutoCAD Mechanical|Company: Autodesk, Inc.
 90
    33792
280
     1
281
     0
  0
CLASS
  1
ACAMGTITLESTD
  2
AcAmgTitleStd
  3
"AmgTitle|Product Description: AutoCAD Mechanical|Company: Autodesk, Inc."
 90
    36863
280
     1
281
     0
  0
CLASS
  1
AMDTNOTETEMPLATEDB
  2
AmdtNoteTemplateDB
  3
AcmSymBB|Product Description: AutoCAD Mechanical|Company: Autodesk, Inc.
 90
    33792
280
     1
281
     0
  0
CLASS
  1
ACAMGFILTERDAT
  2
AcAmgFilterDat
  3
"AcadM|Product Description: AutoCAD Mechanical|Company: Autodesk, Inc."
 90
    33792
280
     1
281
     0
  0
CLASS
  1
CAMSSTRUCTBTNSTATE
  2
StructBtnState
  3
DesignerAssemblies
 90
    33792
280
     1
281
     0
  0
CLASS
  1
ACDBPLACEHOLDER
  2
AcDbPlaceHolder
  3
ObjectDBX Classes
 90
        0
280
     0
281
     0
  0
CLASS
  1
LAYOUT
  2
AcDbLayout
  3
ObjectDBX Classes
 90
        0
280
     0
281
     0
  0
CLASS
  1
SOLID_BACKGROUND
  2
AcDbSolidBackground
  3
SCENEOE
 90
    36863
280
     0
281
     0
  0
ENDSEC
  0
SECTION
  2
TABLES
  0
TABLE
  2
VPORT
  5
28
102
{ACAD_XDICTIONARY
360
2D
102
}
330
0
100
AcDbSymbolTable
 70
     1
  0
VPORT
  5
29
330
28
100
AcDbSymbolTableRecord
100
AcDbViewportTableRecord
  2
*ACTIVE
 70
     0
 10
0.0
 20
0.0
 11
1.0
 21
1.0
 12
-16.00185951462686
 22
44.43943938652442
 13
0.0
 23
0.0
 14
1.0
 24
1.0
 15
0.0
 25
0.0
 16
0.0
 26
0.0
 36
1.0
 17
0.0
 27
0.0
 37
0.0
 40
310.7304651823945
 41
3.007207207207207
 42
50.0
 43
0.0
 44
0.0
 50
0.0
 51
0.0
 71
     0
 72
   100
 73
     1
 74
     1
 75
     0
 76
     0
 77
     0
 78
     0
281
     0
 65
     1
110
0.0
120
0.0
130
0.0
111
1.0
121
0.0
131
0.0
112
0.0
122
1.0
132
0.0
 79
     0
146
0.0
1001
ACAD_NAV_VCDISPLAY
1070
     3
  0
ENDTAB
  0
TABLE
  2
LTYPE
  5
23
330
0
100
AcDbSymbolTable
 70
     1
  0
LTYPE
  5
24
330
23
100
AcDbSymbolTableRecord
100
AcDbLinetypeTableRecord
  2
ByBlock
 70
     0
  3

 72
    65
 73
     0
 40
0.0
  0
LTYPE
  5
25
330
23
100
AcDbSymbolTableRecord
100
AcDbLinetypeTableRecord
  2
ByLayer
 70
     0
  3

 72
    65
 73
     0
 40
0.0
  0
LTYPE
  5
13
330
23
100
AcDbSymbolTableRecord
100
AcDbLinetypeTableRecord
  2
CONTINUOUS
 70
     0
  3
Solid line
 72
    65
 73
     0
 40
0.0
  0
ENDTAB
  0
TABLE
  2
LAYER
  5
1B
102
{ACAD_XDICTIONARY
360
1C
102
}
330
0
100
AcDbSymbolTable
 70
     6
  0
LAYER
  5
6
330
1B
100
AcDbSymbolTableRecord
100
AcDbLayerTableRecord
  2
0
 70
     0
 62
     7
  6
CONTINUOUS
370
    -3
390
7
  0
LAYER
  5
7C
330
1B
100
AcDbSymbolTableRecord
100
AcDbLayerTableRecord
  2
GEB-KONTUR-A
 70
     0
 62
     5
  6
CONTINUOUS
370
    -3
390
7
  0
LAYER
  5
1BD
330
1B
100
AcDbSymbolTableRecord
100
AcDbLayerTableRecord
  2
GEB-ART-NR
 70
     0
 62
     1
  6
CONTINUOUS
370
    18
390
7
  0
LAYER
  5
73
330
1B
100
AcDbSymbolTableRecord
100
AcDbLayerTableRecord
  2
GEB-BEZUG
 70
     0
 62
     2
  6
CONTINUOUS
370
    25
390
7
  0
LAYER
  5
1BA
330
1B
100
AcDbSymbolTableRecord
100
AcDbLayerTableRecord
  2
GEB-TEXT
 70
     0
 62
     5
  6
CONTINUOUS
370
    18
390
7
  0
LAYER
  5
77
330
1B
100
AcDbSymbolTableRecord
100
AcDbLayerTableRecord
  2
Arbeitspunkt(DIN)
 70
     0
 62
     7
  6
CONTINUOUS
370
    25
390
7
  0
ENDTAB
  0
TABLE
  2
STYLE
  5
20
330
0
100
AcDbSymbolTable
 70
     1
  0
STYLE
  5
21
330
20
100
AcDbSymbolTableRecord
100
AcDbTextStyleTableRecord
  2
STANDARD
 70
     0
 40
0.0
 41
1.0
 50
0.0
 71
     0
 42
0.2
  3
arial.ttf
  4

1001
ACAD
1000
Arial
1071
       34
  0
ENDTAB
  0
TABLE
  2
VIEW
  5
26
330
0
100
AcDbSymbolTable
 70
     0
  0
ENDTAB
  0
TABLE
  2
UCS
  5
27
330
0
100
AcDbSymbolTable
 70
     0
  0
ENDTAB
  0
TABLE
  2
APPID
  5
2E
330
0
100
AcDbSymbolTable
 70
     3
  0
APPID
  5
1F
330
2E
100
AcDbSymbolTableRecord
100
AcDbRegAppTableRecord
  2
ACAD
 70
     0
  0
APPID
  5
2C
330
2E
100
AcDbSymbolTableRecord
100
AcDbRegAppTableRecord
  2
ACAD_NAV_VCDISPLAY
 70
     0
  0
APPID
  5
227
330
2E
100
AcDbSymbolTableRecord
100
AcDbRegAppTableRecord
  2
ACAD_MLEADERVER
 70
     0
  0
ENDTAB
  0
TABLE
  2
DIMSTYLE
  5
2F
330
0
100
AcDbSymbolTable
 70
     1
100
AcDbDimStyleTable
 71
     1
340
30
  0
DIMSTYLE
105
30
330
2F
100
AcDbSymbolTableRecord
100
AcDbDimStyleTableRecord
  2
STANDARD
 70
     0
279
     2
340
21
  0
ENDTAB
  0
TABLE
  2
BLOCK_RECORD
  5
1
330
0
100
AcDbSymbolTable
 70
     1
  0
BLOCK_RECORD
  5
2
102
{ACAD_XDICTIONARY
360
3
102
}
330
1
100
AcDbSymbolTableRecord
100
AcDbBlockTableRecord
  2
*Model_Space
340
15
  0
BLOCK_RECORD
  5
17
330
1
100
AcDbSymbolTableRecord
100
AcDbBlockTableRecord
  2
*Paper_Space
340
1A
  0
BLOCK_RECORD
  5
70
330
1
100
AcDbSymbolTableRecord
100
AcDbBlockTableRecord
  2
Einfügepunkt
340
0
102
{BLKREFS
331
6F
102
}
  0
ENDTAB
  0
ENDSEC
  0
SECTION
  2
BLOCKS
  0
BLOCK
  5
5
330
2
100
AcDbEntity
  8
0
100
AcDbBlockBegin
  2
*Model_Space
 70
     0
 10
0.0
 20
0.0
 30
0.0
  3
*Model_Space
  1

  0
ENDBLK
  5
14
330
2
100
AcDbEntity
  8
0
100
AcDbBlockEnd
  0
BLOCK
  5
18
330
17
100
AcDbEntity
 67
     1
  8
0
100
AcDbBlockBegin
  2
*Paper_Space
 70
     0
 10
0.0
 20
0.0
 30
0.0
  3
*Paper_Space
  1

  0
ENDBLK
  5
19
330
17
100
AcDbEntity
 67
     1
  8
0
100
AcDbBlockEnd
  0
BLOCK
  5
71
330
70
100
AcDbEntity
  8
0
100
AcDbBlockBegin
  2
Einfügepunkt
 70
     0
 10
0.0
 20
0.0
 30
0.0
  3
Einfügepunkt
  1

  0
LINE
  5
72
330
70
100
AcDbEntity
  8
GEB-BEZUG
100
AcDbLine
 10
-7.071067811865816
 20
-7.071067811865106
 30
0.0
 11
7.07106781186475
 21
7.071067811865816
 31
0.0
  0
LINE
  5
74
330
70
100
AcDbEntity
  8
GEB-BEZUG
100
AcDbLine
 10
-7.071067811865106
 20
7.071067811865816
 30
0.0
 11
7.071067811865461
 21
-7.071067811865106
 31
0.0
  0
ENDBLK
  5
75
330
70
100
AcDbEntity
  8
0
100
AcDbBlockEnd
  0
ENDSEC
  0
SECTION
  2
ENTITIES
  0
INSERT
  5
6F
330
2
100
AcDbEntity
  8
0
 48
25.0
100
AcDbBlockReference
  2
Einfügepunkt
 10
0.0
 20
0.0
 30
0.0
  0
LINE
  5
76
330
2
100
AcDbEntity
  8
Arbeitspunkt(DIN)
 48
25.0
100
AcDbLine
 10
0.0
 20
-0.0000000000000355
 30
0.0
 11
0.0
 21
-2.500000000000035
 31
0.0
  0
LINE
  5
78
330
2
100
AcDbEntity
  8
Arbeitspunkt(DIN)
 48
25.0
100
AcDbLine
 10
0.0
 20
-0.0000000000000355
 30
0.0
 11
0.0
 21
2.499999999999964
 31
0.0
  0
LINE
  5
79
330
2
100
AcDbEntity
  8
Arbeitspunkt(DIN)
 48
25.0
100
AcDbLine
 10
0.0
 20
-0.0000000000000355
 30
0.0
 11
-2.5
 21
-0.0000000000000355
 31
0.0
  0
LINE
  5
7A
330
2
100
AcDbEntity
  8
Arbeitspunkt(DIN)
 48
25.0
100
AcDbLine
 10
0.0
 20
-0.0000000000000355
 30
0.0
 11
2.5
 21
-0.0000000000000355
 31
0.0
  0
SPLINE
  5
7B
330
2
100
AcDbEntity
  8
GEB-KONTUR-A
 48
25.0
100
AcDbSpline
210
0.0
220
0.0
230
1.0
 70
     8
 71
     3
 72
     8
 73
     4
 74
     0
 42
0.0000000001
 43
0.0000000001
 40
0.0
 40
0.0
 40
0.0
 40
0.0
 40
0.3182648342205396
 40
0.3182648342205396
 40
0.3182648342205396
 40
0.3182648342205396
 10
-80.73141547885365
 20
-64.65330726990777
 30
0.0
 10
-81.1365914118461
 20
-64.35180774486344
 30
0.0
 10
-81.51930869651039
 20
-64.05688813655564
 30
0.0
 10
-81.87923934960327
 20
-63.76863278554307
 30
0.0
  0
SPLINE
  5
7D
330
2
100
AcDbEntity
  8
GEB-KONTUR-A
 48
25.0
100
AcDbSpline
210
0.0
220
0.0
230
1.0
 70
     8
 71
     3
 72
     8
 73
     4
 74
     0
 42
0.0000000001
 43
0.0000000001
 40
0.3183236167735709
 40
0.3183236167735709
 40
0.3183236167735709
 40
0.3183236167735709
 40
0.4324082738438881
 40
0.4324082738438881
 40
0.4324082738438881
 40
0.4324082738438881
 10
-81.87923934960327
 20
-63.76863278554307
 30
0.0
 10
-82.00821189605818
 20
-63.6653433704019
 30
0.0
 10
-82.13424928975269
 20
-63.56291393102402
 30
0.0
 10
-82.25733832578237
 20
-63.46134994262095
 30
0.0
  0
SPLINE
  5
7E
330
2
100
AcDbEntity
  8
GEB-KONTUR-A
 48
25.0
100
AcDbSpline
210
0.0
220
0.0
230
1.0
 70
     8
 71
     3
 72
    10
 73
     6
 74
     0
 42
0.0000000001
 43
0.0000000001
 40
2.3201590640731
 40
2.3201590640731
 40
2.3201590640731
 40
2.3201590640731
 40
3.460789527781026
 40
3.460789527781026
 40
3.598114837948632
 40
3.598114837948632
 40
3.598114837948632
 40
3.598114837948632
 10
-36.15933065594447
 20
-63.94832257052797
 30
0.0
 10
-32.41474587968867
 20
-64.33030976541357
 30
0.0
 10
-28.67229055848753
 20
-64.52808900179076
 30
0.0
 10
-24.55045832979351
 20
-64.55291366853528
 30
0.0
 10
-24.10987563334146
 20
-64.55306531372514
 30
0.0
 10
-23.67171434784444
 20
-64.55082265354779
 30
0.0
  0
SPLINE
  5
7F
330
2
100
AcDbEntity
  8
GEB-KONTUR-A
 48
25.0
100
AcDbSpline
210
0.0
220
0.0
230
1.0
 70
     8
 71
     3
 72
    10
 73
     6
 74
     0
 42
0.0000000001
 43
0.0000000001
 40
0.0
 40
0.0
 40
0.0
 40
0.0
 40
1.573467541026522
 40
1.573467541026522
 40
2.357870068010711
 40
2.357870068010711
 40
2.357870068010711
 40
2.357870068010711
 10
-57.82321509625376
 20
-70.1279592828065
 30
0.0
 10
-62.82921384073779
 20
-68.56684329472066
 30
0.0
 10
-67.90331348331335
 20
-67.23227072052182
 30
0.0
 10
-75.58626402899
 20
-65.57924646518507
 30
0.0
 10
-78.15391484337482
 20
-65.08715787880156
 30
0.0
 10
-80.73141546352315
 20
-64.6533072724882
 30
0.0
  0
SPLINE
  5
80
330
2
100
AcDbEntity
  8
GEB-KONTUR-A
 48
25.0
100
AcDbSpline
210
0.0
220
0.0
230
1.0
 70
     8
 71
     3
 72
    10
 73
     6
 74
     0
 42
0.0000000001
 43
0.0000000001
 40
1.45062491035871
 40
1.45062491035871
 40
1.45062491035871
 40
1.45062491035871
 40
3.709550581175179
 40
3.709550581175179
 40
7.42047664351323
 40
7.42047664351323
 40
7.42047664351323
 40
7.42047664351323
 10
0.9896678121009472
 20
-72.18861438215964
 30
0.0
 10
-6.313294937207729
 20
-73.91556386274624
 30
0.0
 10
-13.78508931739145
 20
-74.90315200555153
 30
0.0
 10
-33.67597525080095
 20
-75.49987748831968
 30
0.0
 10
-46.01679897289983
 20
-73.8097790180733
 30
0.0
 10
-57.82321509625376
 20
-70.12795928280652
 30
0.0
  0
LINE
  5
81
330
2
100
AcDbEntity
  8
GEB-KONTUR-A
 48
25.0
100
AcDbLine
 10
85.99999999999965
 20
-63.54590001873623
 30
0.0
 11
85.99999999999965
 21
-63.86785136405859
 31
0.0
  0
LINE
  5
82
330
2
100
AcDbEntity
  8
GEB-KONTUR-A
 48
25.0
100
AcDbLine
 10
85.99999999999965
 20
-63.86785136405859
 30
0.0
 11
85.99999999999965
 21
-75.99999999970357
 31
0.0
  0
LINE
  5
83
330
2
100
AcDbEntity
  8
GEB-KONTUR-A
 48
25.0
100
AcDbLine
 10
0.9896694991227263
 20
-66.14166480016459
 30
0.0
 11
0.9896694991227263
 21
-66.45460046419853
 31
0.0
  0
LINE
  5
84
330
2
100
AcDbEntity
  8
GEB-KONTUR-A
 48
25.0
100
AcDbLine
 10
85.99999999999965
 20
-75.99999999970357
 30
0.0
 11
0.9896694991226695
 21
-75.99999999969146
 31
0.0
  0
LINE
  5
85
330
2
100
AcDbEntity
  8
GEB-KONTUR-A
 48
25.0
100
AcDbLine
 10
0.9896694991227263
 20
-66.45460046419853
 30
0.0
 11
0.9896694991227263
 21
-75.99999999969146
 31
0.0
  0
LINE
  5
86
330
2
100
AcDbEntity
  8
GEB-KONTUR-A
 48
25.0
100
AcDbLine
 10
-120.5000000000004
 20
-42.99999999967939
 30
0.0
 11
-123.0000000000004
 21
-42.99999999968014
 31
0.0
  0
LINE
  5
87
330
2
100
AcDbEntity
  8
GEB-KONTUR-A
 48
25.0
100
AcDbLine
 10
-123.0000000000004
 20
-42.99999999968015
 30
0.0
 11
-122.4441527957534
 21
-53.60619648140846
 31
0.0
  0
LINE
  5
88
330
2
100
AcDbEntity
  8
GEB-KONTUR-A
 48
25.0
100
AcDbLine
 10
122.9999999999996
 20
-42.99999999967996
 30
0.0
 11
120.4999999999996
 21
-42.99999999967922
 31
0.0
  0
LINE
  5
89
330
2
100
AcDbEntity
  8
GEB-KONTUR-A
 48
25.0
100
AcDbLine
 10
122.9999999999996
 20
-42.99999999967996
 30
0.0
 11
122.4441527957527
 21
-53.60619648140825
 31
0.0
  0
LINE
  5
8A
330
2
100
AcDbEntity
  8
GEB-KONTUR-A
 48
25.0
100
AcDbLine
 10
-120.5000000000004
 20
-42.9999999996794
 30
0.0
 11
120.4999999999996
 21
-42.99999999967922
 31
0.0
  0
SPLINE
  5
8B
330
2
100
AcDbEntity
  8
GEB-KONTUR-A
 48
25.0
100
AcDbSpline
210
0.0
220
0.0
230
1.0
 70
     8
 71
     3
 72
     8
 73
     4
 74
     0
 42
0.0000000001
 43
0.0000000001
 40
0.0
 40
0.0
 40
0.0
 40
0.0
 40
3.378103648350351
 40
3.378103648350351
 40
3.378103648350351
 40
3.378103648350351
 10
122.127556809798
 20
-59.64720776421872
 30
0.0
 10
110.9720667516574
 20
-61.18031644212023
 30
0.0
 10
99.7857208354198
 20
-62.50356437732901
 30
0.0
 10
88.58041490046668
 20
-63.61554439497172
 30
0.0
  0
SPLINE
  5
8C
330
2
100
AcDbEntity
  8
GEB-KONTUR-A
 48
25.0
100
AcDbSpline
210
0.0
220
0.0
230
1.0
 70
     8
 71
     3
 72
     8
 73
     4
 74
     0
 42
0.0000000001
 43
0.0000000001
 40
0.0
 40
0.0
 40
0.0
 40
0.0
 40
3.37810364835036
 40
3.37810364835036
 40
3.37810364835036
 40
3.37810364835036
 10
-88.58041490046719
 20
-63.61554439497187
 30
0.0
 10
-99.78572083542031
 20
-62.50356437732917
 30
0.0
 10
-110.9720667516579
 20
-61.1803164421204
 30
0.0
 10
-122.1275568097986
 20
-59.64720776421891
 30
0.0
  0
SPLINE
  5
8D
330
2
100
AcDbEntity
  8
GEB-KONTUR-A
 48
25.0
100
AcDbSpline
210
0.0
220
0.0
230
1.0
 70
     8
 71
     3
 72
    11
 73
     7
 74
     0
 42
0.0000000001
 43
0.0000000001
 40
-0.6465308888337732
 40
-0.6465308888337732
 40
-0.6465308888337732
 40
-0.6465308888337732
 40
-0.5061071926713142
 40
-0.5061071926713142
 40
-0.5061071926713142
 40
-0.008077072813104
 40
-0.008077072813104
 40
-0.008077072813104
 40
-0.008077072813104
 10
-36.00000000000023
 20
-61.23808365346644
 30
0.0
 10
-24.50676177255923
 20
-61.71506888073828
 30
0.0
 10
-13.00400540770766
 20
-61.96360314941485
 30
0.0
 10
-1.500857970925721
 20
-61.98348891162106
 30
0.0
 10
39.29648644635335
 20
-62.05401624287421
 30
0.0
 10
80.0985626837296
 20
-59.24409283622942
 30
0.0
 10
120.4999999999996
 20
-53.58163722143617
 30
0.0
  0
SPLINE
  5
8E
330
2
100
AcDbEntity
  8
GEB-KONTUR-A
 48
25.0
100
AcDbSpline
210
0.0
220
0.0
230
1.0
 70
     8
 71
     3
 72
    16
 73
    12
 74
     0
 42
0.0000000001
 43
0.0000000001
 40
1.22865585034437
 40
1.22865585034437
 40
1.22865585034437
 40
1.22865585034437
 40
1.282569549617333
 40
1.282569549617333
 40
1.346884479907265
 40
1.346884479907265
 40
1.422198589229312
 40
1.422198589229312
 40
1.493706937514535
 40
1.493706937514535
 40
1.536940902961468
 40
1.536940902961468
 40
1.536940902961468
 40
1.536940902961468
 10
120.5000000000206
 20
-53.58163722143331
 30
0.0
 10
120.6779681303117
 20
-53.55669413263374
 30
0.0
 10
120.8557322645171
 20
-53.53552459977207
 30
0.0
 10
121.2338894507133
 20
-53.49884056646127
 30
0.0
 10
121.429147969395
 20
-53.4854857638146
 30
0.0
 10
121.8127006075029
 20
-53.47214286051086
 30
0.0
 10
121.9898508459444
 20
-53.4749790523272
 30
0.0
 10
122.2580706746989
 20
-53.49963309121739
 30
0.0
 10
122.3504159866998
 20
-53.52023879022758
 30
0.0
 10
122.4307815959632
 20
-53.56518623105325
 30
0.0
 10
122.4452825174956
 20
-53.58464010641302
 30
0.0
 10
122.4441527957527
 20
-53.60619648140826
 30
0.0
  0
SPLINE
  5
8F
330
2
100
AcDbEntity
  8
GEB-KONTUR-A
 48
25.0
100
AcDbSpline
210
0.0
220
0.0
230
1.0
 70
    24
 71
     3
 72
     8
 73
     4
 74
     0
 42
0.0000000001
 43
0.0000000001
 40
0.0505810744193914
 40
0.0505810744193914
 40
0.0505810744193914
 40
0.0505810744193914
 40
8.047145290600791
 40
8.047145290600791
 40
8.047145290600791
 40
8.047145290600791
 10
122.4441527957527
 20
-53.60619648140826
 30
0.0
 10
122.234284567002
 20
-57.61072084061793
 30
0.0
 10
122.127556809798
 20
-59.64720776421083
 30
0.0
 10
122.127556809798
 20
-59.64720776421872
 30
0.0
  0
SPLINE
  5
90
330
2
100
AcDbEntity
  8
GEB-KONTUR-A
 48
25.0
100
AcDbSpline
210
0.0
220
0.0
230
1.0
 70
     8
 71
     3
 72
    20
 73
    16
 74
     0
 42
0.0000000001
 43
0.0000000001
 40
-13.10530387227766
 40
-13.10530387227766
 40
-13.10530387227766
 40
-13.10530387227766
 40
-11.16892434496999
 40
-11.16892434496999
 40
-9.940483357906387
 40
-9.940483357906387
 40
-7.77708025946633
 40
-7.77708025946633
 40
-5.8491638468694
 40
-5.8491638468694
 40
-3.994097628165543
 40
-3.994097628165543
 40
-2.102721963837428
 40
-2.102721963837428
 40
-0.1348514512792463
 40
-0.1348514512792463
 40
-0.1348514512792463
 40
-0.1348514512792463
 10
88.58044459793564
 20
-63.61493459088409
 30
0.0
 10
88.58050172692072
 20
-63.61415327148225
 30
0.0
 10
87.66686675209394
 20
-63.58750179653452
 30
0.0
 10
84.68603950543206
 20
-63.51307542306679
 30
0.0
 10
83.16411838965292
 20
-63.47762307926984
 30
0.0
 10
77.96887803277349
 20
-63.38068223692674
 30
0.0
 10
73.56039381896812
 20
-63.31965942518728
 30
0.0
 10
63.34909878793837
 20
-63.31001394576503
 30
0.0
 10
57.83152105910835
 20
-63.35164515709746
 30
0.0
 10
45.99825631269908
 20
-63.5931117862051
 30
0.0
 10
39.88580620876201
 20
-63.78466232102735
 30
0.0
 10
27.45457364693573
 20
-64.32349547993347
 30
0.0
 10
21.34646307035723
 20
-64.66427588232143
 30
0.0
 10
9.764409270286421
 20
-65.42812133466009
 30
0.0
 10
4.485924276483046
 20
-65.84181101992998
 30
0.0
 10
-0.0000000000002842
 20
-66.22575205639534
 30
0.0
  0
SPLINE
  5
91
330
2
100
AcDbEntity
  8
GEB-KONTUR-A
 48
25.0
100
AcDbSpline
210
0.0
220
0.0
230
1.0
 70
     8
 71
     3
 72
    12
 73
     8
 74
     0
 42
0.0000000001
 43
0.0000000001
 40
-21.79684827320404
 40
-21.79684827320404
 40
-21.79684827320404
 40
-21.79684827320404
 40
-20.60109348372073
 40
-20.60109348372073
 40
-19.29810116458628
 40
-19.29810116458628
 40
-17.72130001556053
 40
-17.72130001556053
 40
-17.72130001556053
 40
-17.72130001556053
 10
-0.0000000000002842
 20
-66.22575205639534
 30
0.0
 10
-2.729341374900855
 20
-65.99215333921669
 30
0.0
 10
-5.758828283069306
 20
-65.7469027293166
 30
0.0
 10
-12.65097959801784
 20
-65.2353651967703
 30
0.0
 10
-16.53108611378036
 20
-64.97182368493304
 30
0.0
 10
-25.58881024782545
 20
-64.43058379331842
 30
0.0
 10
-30.76740526595813
 20
-64.16819639866381
 30
0.0
 10
-36.00000000000023
 20
-63.95633284883178
 30
0.0
  0
SPLINE
  5
92
330
2
100
AcDbEntity
  8
GEB-KONTUR-A
 48
25.0
100
AcDbSpline
210
0.0
220
0.0
230
1.0
 70
     8
 71
     3
 72
    16
 73
    12
 74
     0
 42
0.0000000001
 43
0.0000000001
 40
-17.72130001556053
 40
-17.72130001556053
 40
-17.72130001556053
 40
-17.72130001556053
 40
-17.51543962293725
 40
-17.51543962293725
 40
-15.634086779154
 40
-15.634086779154
 40
-13.54743267677854
 40
-13.54743267677854
 40
-11.13380593237904
 40
-11.13380593237904
 40
-8.858795343295243
 40
-8.858795343295243
 40
-8.858795343295243
 40
-8.858795343295243
 10
-36.00000000000023
 20
-63.95633284883178
 30
0.0
 10
-36.68314511760366
 20
-63.92867285278349
 30
0.0
 10
-37.36720997924744
 20
-63.90185765557831
 30
0.0
 10
-44.30851921026248
 20
-63.63876594834117
 30
0.0
 10
-50.40329084375582
 20
-63.4837376058924
 30
0.0
 10
-62.3618491401001
 20
-63.30560745308202
 30
0.0
 10
-67.94005218104735
 20
-63.29981169395171
 30
0.0
 10
-78.00863979537599
 20
-63.36910325457981
 30
0.0
 10
-82.0965369851474
 20
-63.45316983235097
 30
0.0
 10
-87.31087135256126
 20
-63.57566083640051
 30
0.0
 10
-88.58048949792863
 20
-63.61438139621974
 30
0.0
 10
-88.5804284114892
 20
-63.61528316102321
 30
0.0
  0
SPLINE
  5
93
330
2
100
AcDbEntity
  8
GEB-KONTUR-A
 48
25.0
100
AcDbSpline
210
0.0
220
0.0
230
1.0
 70
    24
 71
     3
 72
    10
 73
     6
 74
     0
 42
0.0000000001
 43
0.0000000001
 40
8.047145290600967
 40
8.047145290600967
 40
8.047145290600967
 40
8.047145290600967
 40
8.193156494088862
 40
8.193156494088862
 40
16.04204957074349
 40
16.04204957074349
 40
16.04204957074349
 40
16.04204957074349
 10
-122.1275568097986
 20
-59.64720776421891
 30
0.0
 10
-122.1275568097986
 20
-59.64720776421876
 30
0.0
 10
-122.1275923928167
 20
-59.64652879979067
 30
0.0
 10
-122.1314903144255
 20
-59.57215202476568
 30
0.0
 10
-122.2381596121409
 20
-57.53678057466486
 30
0.0
 10
-122.4441527957534
 20
-53.60619648140846
 30
0.0
  0
SPLINE
  5
94
330
2
100
AcDbEntity
  8
GEB-KONTUR-A
 48
25.0
100
AcDbSpline
210
0.0
220
0.0
230
1.0
 70
     8
 71
     3
 72
    16
 73
    12
 74
     0
 42
0.0000000001
 43
0.0000000001
 40
0.9203775189729357
 40
0.9203775189729357
 40
0.9203775189729357
 40
0.9203775189729357
 40
0.9681723787184337
 40
0.9681723787184337
 40
1.043991690618133
 40
1.043991690618133
 40
1.118959312882259
 40
1.118959312882259
 40
1.181438927051347
 40
1.181438927051347
 40
1.228669212288031
 40
1.228669212288031
 40
1.228669212288031
 40
1.228669212288031
 10
-122.4441527957534
 20
-53.60619648140846
 30
0.0
 10
-122.4454018109198
 20
-53.5823638522921
 30
0.0
 10
-122.4275440545225
 20
-53.56111544919365
 30
0.0
 10
-122.3316036776131
 20
-53.51427311014738
 30
0.0
 10
-122.2255339692801
 20
-53.49402640432507
 30
0.0
 10
-121.9311148677679
 20
-53.47326464509301
 30
0.0
 10
-121.7468822327771
 20
-53.47276025587966
 30
0.0
 10
-121.3584251335743
 20
-53.48996545382769
 30
0.0
 10
-121.1655882143988
 20
-53.50452405577413
 30
0.0
 10
-120.8117464640286
 20
-53.54081836533177
 30
0.0
 10
-120.6559063033877
 20
-53.55978620370916
 30
0.0
 10
-120.4999999999801
 20
-53.58163722143934
 30
0.0
  0
SPLINE
  5
95
330
2
100
AcDbEntity
  8
GEB-KONTUR-A
 48
25.0
100
AcDbSpline
210
0.0
220
0.0
230
1.0
 70
     8
 71
     3
 72
     8
 73
     4
 74
     0
 42
0.0000000001
 43
0.0000000001
 40
-0.991922927186896
 40
-0.991922927186896
 40
-0.991922927186896
 40
-0.991922927186896
 40
-0.6465308888337732
 40
-0.6465308888337732
 40
-0.6465308888337732
 40
-0.6465308888337732
 10
-120.4999999999993
 20
-53.58163722143655
 30
0.0
 10
-92.48094163126609
 20
-57.50864291529978
 30
0.0
 10
-64.26925289063269
 20
-60.06487069572497
 30
0.0
 10
-36.00000000000023
 20
-61.23808365346644
 30
0.0
  0
ARC
  5
96
330
2
100
AcDbEntity
  8
GEB-KONTUR-A
 48
25.0
100
AcDbCircle
 10
0.0000000000000568
 20
122.7400000000172
 30
0.0
 40
46.09999999999996
100
AcDbArc
 50
7.804405843497677
 51
172.1955941565023
  0
ARC
  5
97
330
2
100
AcDbEntity
  8
GEB-KONTUR-A
 48
25.0
100
AcDbCircle
 10
0.0000000000000568
 20
122.7400000000135
 30
0.0
 40
59.99999999999992
100
AcDbArc
 50
5.988758410909474
 51
174.0112415890909
  0
ARC
  5
98
330
2
100
AcDbEntity
  8
GEB-KONTUR-A
 48
25.0
100
AcDbCircle
 10
0.0000000000000568
 20
122.7400000000165
 30
0.0
 40
56.09999999999995
100
AcDbArc
 50
6.4067757033045
 51
173.5932242966959
  0
LINE
  5
99
330
2
100
AcDbEntity
  8
GEB-KONTUR-A
 48
25.0
100
AcDbLine
 10
-40.44220966117046
 20
144.8677580816937
 30
0.0
 11
-39.52507466243332
 21
144.6415668201867
 31
0.0
  0
LINE
  5
9A
330
2
100
AcDbEntity
  8
GEB-KONTUR-A
 48
25.0
100
AcDbLine
 10
-40.48206655178268
 20
142.817660320542
 30
0.0
 11
-41.38917730136518
 21
143.0413793205335
 31
0.0
  0
LINE
  5
9B
330
2
100
AcDbEntity
  8
GEB-KONTUR-A
 48
25.0
100
AcDbLine
 10
1.047865203424237
 20
167.9153487509013
 30
0.0
 11
1.271584203415613
 21
168.8224595004836
 31
0.0
  0
LINE
  5
9C
330
2
100
AcDbEntity
  8
GEB-KONTUR-A
 48
25.0
100
AcDbLine
 10
-0.7856686919786285
 20
168.8333045539862
 30
0.0
 11
-1.011859953485554
 21
167.9161695552494
 31
0.0
  0
LINE
  5
9D
330
2
100
AcDbEntity
  8
GEB-KONTUR-A
 48
25.0
100
AcDbLine
 10
22.12775808169283
 20
163.1822096611716
 30
0.0
 11
21.9015668201859
 21
162.2650746624347
 31
0.0
  0
LINE
  5
9E
330
2
100
AcDbEntity
  8
GEB-KONTUR-A
 48
25.0
100
AcDbLine
 10
20.07766032054115
 20
163.2220665517841
 30
0.0
 11
20.30137932053253
 21
164.1291773013663
 31
0.0
  0
LINE
  5
9F
330
2
100
AcDbEntity
  8
GEB-KONTUR-A
 48
25.0
100
AcDbLine
 10
-22.79387483563988
 20
162.3911651150144
 30
0.0
 11
-22.98222067872501
 21
162.7028268854363
 31
0.0
  0
LINE
  5
A0
330
2
100
AcDbEntity
  8
GEB-KONTUR-A
 48
25.0
100
AcDbLine
 10
-22.79387483563988
 20
162.3911651150144
 30
0.0
 11
-24.50558390104004
 21
161.3567319004342
 31
0.0
  0
LINE
  5
A1
330
2
100
AcDbEntity
  8
GEB-KONTUR-A
 48
25.0
100
AcDbLine
 10
-24.69392974412523
 20
161.6683936708561
 30
0.0
 11
-24.50558390104004
 21
161.3567319004342
 31
0.0
  0
LINE
  5
A2
330
2
100
AcDbEntity
  8
GEB-KONTUR-A
 48
25.0
100
AcDbLine
 10
39.65116511500236
 20
145.533874835652
 30
0.0
 11
39.96282688542419
 21
145.7222206787372
 31
0.0
  0
LINE
  5
A3
330
2
100
AcDbEntity
  8
GEB-KONTUR-A
 48
25.0
100
AcDbLine
 10
39.65116511500236
 20
145.533874835652
 30
0.0
 11
38.61673190042211
 21
147.2455839010522
 31
0.0
  0
LINE
  5
A4
330
2
100
AcDbEntity
  8
GEB-KONTUR-A
 48
25.0
100
AcDbLine
 10
38.928393670844
 20
147.4339297441374
 30
0.0
 11
38.61673190042211
 21
147.2455839010522
 31
0.0
  0
LINE
  5
A5
330
2
100
AcDbEntity
  8
GEB-KONTUR-A
 48
25.0
100
AcDbLine
 10
107.8253961525424
 20
12.00000000031504
 30
0.0
 11
105.9047538304963
 21
-42.9999999996849
 31
0.0
  0
LINE
  5
A6
330
2
100
AcDbEntity
  8
GEB-KONTUR-A
 48
25.0
100
AcDbLine
 10
-107.8253961525416
 20
12.00000000031488
 30
0.0
 11
-105.9047538304954
 21
-42.99999999968505
 31
0.0
  0
ARC
  5
A7
330
2
100
AcDbEntity
  8
GEB-KONTUR-A
 48
25.0
100
AcDbCircle
 10
0.0000000000003411
 20
122.7400000000546
 30
0.0
 40
45.18749999999997
100
AcDbArc
 50
7.963017461059761
 51
172.0369825389402
  0
ARC
  5
A8
330
2
100
AcDbEntity
  8
GEB-KONTUR-A
 48
25.0
100
AcDbCircle
 10
-45.00000000000045
 20
47.0000000003182
 30
0.0
 40
17.00000000000005
100
AcDbArc
 50
66.18397061758606
 51
146.0597846890169
  0
ARC
  5
A9
330
2
100
AcDbEntity
  8
GEB-KONTUR-A
 48
25.0
100
AcDbCircle
 10
-45.00000000000045
 20
47.0000000003182
 30
0.0
 40
17.00000000000005
100
AcDbArc
 50
337.5760356490216
 51
54.66771965757911
  0
ARC
  5
AA
330
2
100
AcDbEntity
  8
GEB-KONTUR-A
 48
25.0
100
AcDbCircle
 10
-45.00000000000045
 20
47.00000000031819
 30
0.0
 40
17.00000000000005
100
AcDbArc
 50
246.183970617586
 51
326.0597846890168
  0
ARC
  5
AB
330
2
100
AcDbEntity
  8
GEB-KONTUR-A
 48
25.0
100
AcDbCircle
 10
-45.00000000000045
 20
47.0000000003182
 30
0.0
 40
17.00000000000005
100
AcDbArc
 50
157.5542269491346
 51
234.6677196575793
  0
LINE
  5
AC
330
2
100
AcDbEntity
  8
GEB-KONTUR-A
 48
25.0
100
AcDbLine
 10
-38.31675202492761
 20
62.22354049025419
 30
0.0
 11
-38.13537867000355
 21
62.5523944782034
 31
0.0
  0
SPLINE
  5
AD
330
2
100
AcDbEntity
  8
GEB-KONTUR-A
 48
25.0
100
AcDbSpline
210
0.0
220
0.0
230
1.0
 70
    24
 71
     3
 72
    10
 73
     6
 74
     0
 42
0.0000000001
 43
0.0000000001
 40
4.357922534498914
 40
4.357922534498914
 40
4.357922534498914
 40
4.357922534498914
 40
4.498627261558078
 40
4.498627261558078
 40
4.541598707857083
 40
4.541598707857083
 40
4.541598707857083
 40
4.541598707857083
 10
-38.13537867000355
 20
62.5523944782034
 30
0.0
 10
-38.0000762401346
 20
62.79771575849981
 30
0.0
 10
-37.88613202741596
 20
63.00431175366102
 30
0.0
 10
-37.77282388072018
 20
63.20975447662112
 30
0.0
 10
-37.74743926499582
 20
63.25578015727866
 30
0.0
 10
-37.72351946071911
 20
63.29914994018119
 30
0.0
  0
SPLINE
  5
AE
330
2
100
AcDbEntity
  8
GEB-KONTUR-A
 48
25.0
100
AcDbSpline
210
0.0
220
0.0
230
1.0
 70
     8
 71
     3
 72
    10
 73
     6
 74
     0
 42
0.0000000001
 43
0.0000000001
 40
-0.2032770690848655
 40
-0.2032770690848655
 40
-0.2032770690848655
 40
-0.2032770690848655
 40
-0.1624535591331435
 40
-0.1624535591331435
 40
0.0
 40
0.0
 40
0.0
 40
0.0
 10
-33.87989702373159
 20
60.9628418907538
 30
0.0
 10
-33.94250551007281
 20
60.95007605545518
 30
0.0
 10
-34.01089940465522
 20
60.93740076345365
 30
0.0
 10
-34.38117530197809
 20
60.8773290821092
 30
0.0
 10
-34.74936438698581
 20
60.84506555463004
 30
0.0
 10
-35.16860516652918
 20
60.86880224234319
 30
0.0
  0
ARC
  5
AF
330
2
100
AcDbEntity
  8
GEB-KONTUR-A
 48
25.0
100
AcDbCircle
 10
-34.88596647065236
 20
65.86080738733187
 30
0.0
 40
5.000000000000035
100
AcDbArc
 50
226.6733245594114
 51
266.7594717654266
  0
ARC
  5
B0
330
2
100
AcDbEntity
  8
GEB-KONTUR-A
 48
25.0
100
AcDbCircle
 10
-26.38303025935835
 20
36.44385642423787
 30
0.0
 40
5.000000000000026
100
AcDbArc
 50
125.4842835411757
 51
165.5704307471894
  0
SPLINE
  5
B1
330
2
100
AcDbEntity
  8
GEB-KONTUR-A
 48
25.0
100
AcDbSpline
210
0.0
220
0.0
230
1.0
 70
     8
 71
     3
 72
    10
 73
     6
 74
     0
 42
0.0000000001
 43
0.0000000001
 40
-0.3728663966273802
 40
-0.3728663966273802
 40
-0.3728663966273802
 40
-0.3728663966273802
 40
-0.2248733454211177
 40
-0.2248733454211177
 40
-0.1286505594411483
 40
-0.1286505594411483
 40
-0.1286505594411483
 40
-0.1286505594411483
 10
-29.28542835316762
 20
40.51523030845099
 30
0.0
 10
-29.01072140988816
 20
40.71106319710355
 30
0.0
 10
-28.75609575036236
 20
40.85158754631741
 30
0.0
 10
-28.39269317429006
 20
41.0249504135738
 30
0.0
 10
-28.26128898038985
 20
41.07956134914688
 30
0.0
 10
-28.14530104242266
 20
41.12330346567917
 30
0.0
  0
SPLINE
  5
B2
330
2
100
AcDbEntity
  8
GEB-KONTUR-A
 48
25.0
100
AcDbSpline
210
0.0
220
0.0
230
1.0
 70
    24
 71
     3
 72
    10
 73
     6
 74
     0
 42
0.0000000001
 43
0.0000000001
 40
0.2527402404373333
 40
0.2527402404373333
 40
0.2527402404373333
 40
0.2527402404373333
 40
0.2957116867363372
 40
0.2957116867363372
 40
0.4364164137955009
 40
0.4364164137955009
 40
0.4364164137955009
 40
0.4364164137955009
 10
-30.14969424976977
 20
37.09657246610721
 30
0.0
 10
-30.19306403267228
 20
37.12049227038398
 30
0.0
 10
-30.23908971332992
 20
37.14587688610841
 30
0.0
 10
-30.44453243629016
 20
37.25918503280431
 30
0.0
 10
-30.65112843145153
 20
37.37312924552313
 30
0.0
 10
-30.89644971174806
 20
37.50843167539223
 30
0.0
  0
LINE
  5
B3
330
2
100
AcDbEntity
  8
GEB-KONTUR-A
 48
25.0
100
AcDbLine
 10
-30.89644971174806
 20
37.50843167539225
 30
0.0
 11
-31.22530369969729
 21
37.68980503031624
 31
0.0
  0
LINE
  5
B4
330
2
100
AcDbEntity
  8
GEB-KONTUR-A
 48
25.0
100
AcDbLine
 10
-51.68324797507324
 20
31.77645951038223
 30
0.0
 11
-51.8646213299973
 21
31.44760552243299
 31
0.0
  0
SPLINE
  5
B5
330
2
100
AcDbEntity
  8
GEB-KONTUR-A
 48
25.0
100
AcDbSpline
210
0.0
220
0.0
230
1.0
 70
    24
 71
     3
 72
    10
 73
     6
 74
     0
 42
0.0000000001
 43
0.0000000001
 40
4.357922534498912
 40
4.357922534498912
 40
4.357922534498912
 40
4.357922534498912
 40
4.498627261558075
 40
4.498627261558075
 40
4.541598707857056
 40
4.541598707857056
 40
4.541598707857056
 40
4.541598707857056
 10
-51.8646213299973
 20
31.44760552243298
 30
0.0
 10
-51.99992375986624
 20
31.20228424213633
 30
0.0
 10
-52.1138679725849
 20
30.99568824697484
 30
0.0
 10
-52.22717611928061
 20
30.79024552401443
 30
0.0
 10
-52.25256073500503
 20
30.74421984335683
 30
0.0
 10
-52.27648053928169
 20
30.70085006045423
 30
0.0
  0
SPLINE
  5
B6
330
2
100
AcDbEntity
  8
GEB-KONTUR-A
 48
25.0
100
AcDbSpline
210
0.0
220
0.0
230
1.0
 70
     8
 71
     3
 72
    10
 73
     6
 74
     0
 42
0.0000000001
 43
0.0000000001
 40
-0.2032770690848941
 40
-0.2032770690848941
 40
-0.2032770690848941
 40
-0.2032770690848941
 40
-0.1624535591331813
 40
-0.1624535591331813
 40
0.0
 40
0.0
 40
0.0
 40
0.0
 10
-56.12010297626909
 20
33.03715810988157
 30
0.0
 10
-56.05749448992788
 20
33.04992394518027
 30
0.0
 10
-55.98910059534552
 20
33.06259923718187
 30
0.0
 10
-55.61882469802276
 20
33.1226709185267
 30
0.0
 10
-55.25063561301516
 20
33.15493444600615
 30
0.0
 10
-54.83139483347156
 20
33.13119775829319
 30
0.0
  0
ARC
  5
B7
330
2
100
AcDbEntity
  8
GEB-KONTUR-A
 48
25.0
100
AcDbCircle
 10
-55.11403352934848
 20
28.13919261330437
 30
0.0
 40
5.000000000000173
100
AcDbArc
 50
46.67332455941432
 51
86.75947176542655
  0
ARC
  5
B8
330
2
100
AcDbEntity
  8
GEB-KONTUR-A
 48
25.0
100
AcDbCircle
 10
-63.61313403204497
 20
57.56309822565985
 30
0.0
 40
4.999999999999894
100
AcDbArc
 50
305.4650588421399
 51
345.4764662061776
  0
SPLINE
  5
B9
330
2
100
AcDbEntity
  8
GEB-KONTUR-A
 48
25.0
100
AcDbSpline
210
0.0
220
0.0
230
1.0
 70
     8
 71
     3
 72
    10
 73
     6
 74
     0
 42
0.0000000001
 43
0.0000000001
 40
-0.3719632780320897
 40
-0.3719632780320897
 40
-0.3719632780320897
 40
-0.3719632780320897
 40
-0.2242434191795893
 40
-0.2242434191795893
 40
-0.1278143995408292
 40
-0.1278143995408292
 40
-0.1278143995408292
 40
-0.1278143995408292
 10
-60.71210218716032
 20
53.4907507165487
 30
0.0
 10
-60.98644226580768
 20
53.29531815518114
 30
0.0
 10
-61.2407521133116
 20
53.15501214511783
 30
0.0
 10
-61.6043949848273
 20
52.98158239084209
 30
0.0
 10
-61.73618896233347
 20
52.92685410379554
 30
0.0
 10
-61.85248688426788
 20
52.8830431966547
 30
0.0
  0
SPLINE
  5
BA
330
2
100
AcDbEntity
  8
GEB-KONTUR-A
 48
25.0
100
AcDbSpline
210
0.0
220
0.0
230
1.0
 70
    24
 71
     3
 72
    10
 73
     6
 74
     0
 42
0.0000000001
 43
0.0000000001
 40
0.2527402404373547
 40
0.2527402404373547
 40
0.2527402404373547
 40
0.2527402404373547
 40
0.2957116867363372
 40
0.2957116867363372
 40
0.4364164137955009
 40
0.4364164137955009
 40
0.4364164137955009
 40
0.4364164137955009
 10
-59.85030575023102
 20
56.90342753452812
 30
0.0
 10
-59.80693596732852
 20
56.87950773025145
 30
0.0
 10
-59.76091028667093
 20
56.85412311452711
 30
0.0
 10
-59.55546756371063
 20
56.74081496783156
 30
0.0
 10
-59.34887156854933
 20
56.626870755113
 30
0.0
 10
-59.10355028825279
 20
56.49156832524415
 30
0.0
  0
LINE
  5
BB
330
2
100
AcDbEntity
  8
GEB-KONTUR-A
 48
25.0
100
AcDbLine
 10
-59.10355028825279
 20
56.49156832524416
 30
0.0
 11
-58.77291044663161
 21
56.309210015648
 31
0.0
  0
CIRCLE
  5
BC
330
2
100
AcDbEntity
  8
GEB-KONTUR-A
 48
25.0
100
AcDbCircle
 10
-45.00000000000045
 20
47.0000000003182
 30
0.0
 40
16.25000000000004
  0
CIRCLE
  5
BD
330
2
100
AcDbEntity
  8
GEB-KONTUR-A
 48
25.0
100
AcDbCircle
 10
-45.00000000000045
 20
47.00000000032168
 30
0.0
 40
8.116025403784462
  0
CIRCLE
  5
BE
330
2
100
AcDbEntity
  8
GEB-KONTUR-A
 48
25.0
100
AcDbCircle
 10
-45.00000000000045
 20
47.00000000032168
 30
0.0
 40
9.000000000000023
  0
CIRCLE
  5
BF
330
2
100
AcDbEntity
  8
GEB-KONTUR-A
 48
25.0
100
AcDbCircle
 10
-45.00000000000045
 20
47.00000000032122
 30
0.0
 40
10.50000000000002
  0
CIRCLE
  5
C0
330
2
100
AcDbEntity
  8
GEB-KONTUR-A
 48
25.0
100
AcDbCircle
 10
-45.00000000000045
 20
47.00000000032122
 30
0.0
 40
7.250000000000022
  0
CIRCLE
  5
C1
330
2
100
AcDbEntity
  8
GEB-KONTUR-A
 48
25.0
100
AcDbCircle
 10
-45.00000000000045
 20
47.00000000031721
 30
0.0
 40
12.50000000000003
  0
LINE
  5
C2
330
2
100
AcDbEntity
  8
GEB-KONTUR-A
 48
25.0
100
AcDbLine
 10
-215.7500000000003
 20
47.00000000025161
 30
0.0
 11
-218.0000000000003
 21
47.00000000025161
 31
0.0
  0
LINE
  5
C3
330
2
100
AcDbEntity
  8
GEB-KONTUR-A
 48
25.0
100
AcDbLine
 10
-218.0000000000003
 20
71.00000000025161
 30
0.0
 11
-218.0000000000003
 21
47.00000000025161
 31
0.0
  0
LINE
  5
C4
330
2
100
AcDbEntity
  8
GEB-KONTUR-A
 48
25.0
100
AcDbLine
 10
-210.0000000000002
 20
71.00000000025161
 30
0.0
 11
-218.0000000000003
 21
71.00000000025161
 31
0.0
  0
LINE
  5
C5
330
2
100
AcDbEntity
  8
GEB-KONTUR-A
 48
25.0
100
AcDbLine
 10
-210.0000000000002
 20
112.0000000002516
 30
0.0
 11
-218.0000000000003
 21
112.0000000002516
 31
0.0
  0
LINE
  5
C6
330
2
100
AcDbEntity
  8
GEB-KONTUR-A
 48
25.0
100
AcDbLine
 10
-210.0000000000002
 20
88.00000000025159
 30
0.0
 11
-218.0000000000003
 21
88.00000000025159
 31
0.0
  0
LINE
  5
C7
330
2
100
AcDbEntity
  8
GEB-KONTUR-A
 48
25.0
100
AcDbLine
 10
-218.0000000000003
 20
112.0000000002516
 30
0.0
 11
-218.0000000000003
 21
88.00000000025162
 31
0.0
  0
LINE
  5
C8
330
2
100
AcDbEntity
  8
GEB-KONTUR-A
 48
25.0
100
AcDbLine
 10
-210.0000000000002
 20
112.0000000002569
 30
0.0
 11
-207.1968322948012
 21
112.0000000002569
 31
0.0
  0
LINE
  5
C9
330
2
100
AcDbEntity
  8
GEB-KONTUR-A
 48
25.0
100
AcDbLine
 10
-210.0000000000002
 20
0.0000000002569607
 30
0.0
 11
-202.0000000000004
 21
0.0000000002569607
 31
0.0
  0
LINE
  5
CA
330
2
100
AcDbEntity
  8
GEB-KONTUR-A
 48
25.0
100
AcDbLine
 10
-202.0000000000004
 20
4.000000000258111
 30
0.0
 11
-202.0000000000004
 21
0.0000000002569251
 31
0.0
  0
LINE
  5
CB
330
2
100
AcDbEntity
  8
GEB-KONTUR-A
 48
25.0
100
AcDbLine
 10
-202.0000000000004
 20
4.000000000258111
 30
0.0
 11
-202.0000000000004
 21
17.19947458820126
 31
0.0
  0
LINE
  5
CC
330
2
100
AcDbEntity
  8
GEB-KONTUR-A
 48
25.0
100
AcDbLine
 10
-210.0000000000002
 20
108.0000000002581
 30
0.0
 11
-210.0000000000002
 21
112.0000000002569
 31
0.0
  0
LINE
  5
CD
330
2
100
AcDbEntity
  8
GEB-KONTUR-A
 48
25.0
100
AcDbLine
 10
-210.0000000000002
 20
108.0000000002581
 30
0.0
 11
-210.0000000000002
 21
52.75000000025814
 31
0.0
  0
LINE
  5
CE
330
2
100
AcDbEntity
  8
GEB-KONTUR-A
 48
25.0
100
AcDbLine
 10
-210.0000000000002
 20
40.00000000025814
 30
0.0
 11
-210.0000000000002
 21
36.50000000025816
 31
0.0
  0
LINE
  5
CF
330
2
100
AcDbEntity
  8
GEB-KONTUR-A
 48
25.0
100
AcDbLine
 10
-210.0000000000002
 20
0.0000000002569251
 30
0.0
 11
-210.0000000000002
 21
3.500000000258154
 31
0.0
  0
LINE
  5
D0
330
2
100
AcDbEntity
  8
GEB-KONTUR-A
 48
25.0
100
AcDbLine
 10
-210.0000000000002
 20
40.00000000025814
 30
0.0
 11
-213.5000000000003
 21
40.00000000025814
 31
0.0
  0
LINE
  5
D1
330
2
100
AcDbEntity
  8
GEB-KONTUR-A
 48
25.0
100
AcDbLine
 10
-217.2500000000003
 20
40.00000000025814
 30
0.0
 11
-217.2500000000003
 21
45.50000000025814
 31
0.0
  0
LINE
  5
D2
330
2
100
AcDbEntity
  8
GEB-KONTUR-A
 48
25.0
100
AcDbLine
 10
-217.2500000000003
 20
45.50000000025814
 30
0.0
 11
-210.0000000000002
 21
52.75000000025816
 31
0.0
  0
LINE
  5
D3
330
2
100
AcDbEntity
  8
GEB-KONTUR-A
 48
25.0
100
AcDbLine
 10
201.2777121522005
 20
112.0000000002519
 30
0.0
 11
201.9999999999996
 21
112.0000000002519
 31
0.0
  0
LINE
  5
D4
330
2
100
AcDbEntity
  8
GEB-KONTUR-A
 48
25.0
100
AcDbLine
 10
201.820879857399
 20
89.00000000025192
 30
0.0
 11
201.9999999999997
 21
89.00000000025196
 31
0.0
  0
LINE
  5
D5
330
2
100
AcDbEntity
  8
GEB-KONTUR-A
 48
25.0
100
AcDbLine
 10
201.8208798573997
 20
69.00000000025193
 30
0.0
 11
201.9999999999996
 21
69.00000000025196
 31
0.0
  0
LINE
  5
D6
330
2
100
AcDbEntity
  8
GEB-KONTUR-A
 48
25.0
100
AcDbLine
 10
201.8208798573997
 20
46.00000000025192
 30
0.0
 11
201.9999999999997
 21
46.00000000025195
 31
0.0
  0
LINE
  5
D7
330
2
100
AcDbEntity
  8
GEB-KONTUR-A
 48
25.0
100
AcDbLine
 10
217.9999999999997
 20
47.00000000025162
 30
0.0
 11
217.9999999999997
 21
71.00000000025161
 31
0.0
  0
LINE
  5
D8
330
2
100
AcDbEntity
  8
GEB-KONTUR-A
 48
25.0
100
AcDbLine
 10
215.7499999999997
 20
47.00000000025162
 30
0.0
 11
217.9999999999997
 21
47.00000000025162
 31
0.0
  0
LINE
  5
D9
330
2
100
AcDbEntity
  8
GEB-KONTUR-A
 48
25.0
100
AcDbLine
 10
209.9999999999997
 20
71.00000000025161
 30
0.0
 11
217.9999999999997
 21
71.00000000025161
 31
0.0
  0
LINE
  5
DA
330
2
100
AcDbEntity
  8
GEB-KONTUR-A
 48
25.0
100
AcDbLine
 10
209.9999999999997
 20
112.0000000002516
 30
0.0
 11
217.9999999999997
 21
112.0000000002516
 31
0.0
  0
LINE
  5
DB
330
2
100
AcDbEntity
  8
GEB-KONTUR-A
 48
25.0
100
AcDbLine
 10
217.9999999999997
 20
88.00000000025162
 30
0.0
 11
217.9999999999997
 21
112.0000000002516
 31
0.0
  0
LINE
  5
DC
330
2
100
AcDbEntity
  8
GEB-KONTUR-A
 48
25.0
100
AcDbLine
 10
209.9999999999997
 20
88.00000000025162
 30
0.0
 11
217.9999999999997
 21
88.00000000025162
 31
0.0
  0
LINE
  5
DD
330
2
100
AcDbEntity
  8
GEB-KONTUR-A
 48
25.0
100
AcDbLine
 10
209.9999999999997
 20
112.0000000002569
 30
0.0
 11
201.9999999999996
 21
112.0000000002569
 31
0.0
  0
LINE
  5
DE
330
2
100
AcDbEntity
  8
GEB-KONTUR-A
 48
25.0
100
AcDbLine
 10
209.9999999999997
 20
0.0000000002569678
 30
0.0
 11
201.9999999999996
 21
0.0000000002569678
 31
0.0
  0
LINE
  5
DF
330
2
100
AcDbEntity
  8
GEB-KONTUR-A
 48
25.0
100
AcDbLine
 10
201.9999999999996
 20
108.0000000002582
 30
0.0
 11
201.9999999999996
 21
112.000000000257
 31
0.0
  0
LINE
  5
E0
330
2
100
AcDbEntity
  8
GEB-KONTUR-A
 48
25.0
100
AcDbLine
 10
201.9999999999996
 20
108.0000000002582
 30
0.0
 11
201.9999999999996
 21
4.000000000258161
 31
0.0
  0
LINE
  5
E1
330
2
100
AcDbEntity
  8
GEB-KONTUR-A
 48
25.0
100
AcDbLine
 10
201.9999999999996
 20
0.0000000002569465
 30
0.0
 11
201.9999999999996
 21
4.000000000258154
 31
0.0
  0
LINE
  5
E2
330
2
100
AcDbEntity
  8
GEB-KONTUR-A
 48
25.0
100
AcDbLine
 10
209.9999999999997
 20
52.75000000025816
 30
0.0
 11
209.9999999999997
 21
108.0000000002582
 31
0.0
  0
LINE
  5
E3
330
2
100
AcDbEntity
  8
GEB-KONTUR-A
 48
25.0
100
AcDbLine
 10
209.9999999999997
 20
112.000000000257
 30
0.0
 11
209.9999999999997
 21
108.0000000002582
 31
0.0
  0
LINE
  5
E4
330
2
100
AcDbEntity
  8
GEB-KONTUR-A
 48
25.0
100
AcDbLine
 10
209.9999999999997
 20
4.000000000258154
 30
0.0
 11
209.9999999999997
 21
0.0000000002569607
 31
0.0
  0
LINE
  5
E5
330
2
100
AcDbEntity
  8
GEB-KONTUR-A
 48
25.0
100
AcDbLine
 10
209.9999999999997
 20
4.000000000258154
 30
0.0
 11
209.9999999999997
 21
40.00000000025815
 31
0.0
  0
LINE
  5
E6
330
2
100
AcDbEntity
  8
GEB-KONTUR-A
 48
25.0
100
AcDbLine
 10
209.9999999999997
 20
40.00000000025815
 30
0.0
 11
217.2499999999997
 21
40.00000000025815
 31
0.0
  0
LINE
  5
E7
330
2
100
AcDbEntity
  8
GEB-KONTUR-A
 48
25.0
100
AcDbLine
 10
217.2499999999997
 20
40.00000000025815
 30
0.0
 11
217.2499999999997
 21
45.50000000025815
 31
0.0
  0
LINE
  5
E8
330
2
100
AcDbEntity
  8
GEB-KONTUR-A
 48
25.0
100
AcDbLine
 10
217.2499999999997
 20
45.50000000025815
 30
0.0
 11
209.9999999999997
 21
52.75000000025816
 31
0.0
  0
ARC
  5
E9
330
2
100
AcDbEntity
  8
GEB-KONTUR-A
 48
25.0
100
AcDbCircle
 10
-187.0000000000002
 20
108.0000000002654
 30
0.0
 40
20.99999999999994
100
AcDbArc
 50
90.00000000000978
 51
98.21321070174944
  0
ARC
  5
EA
330
2
100
AcDbEntity
  8
GEB-KONTUR-A
 48
25.0
100
AcDbCircle
 10
-187.0000000000001
 20
108.0000000002396
 30
0.0
 40
20.99999999999994
100
AcDbArc
 50
98.21321070173958
 51
169.0194245723868
  0
ARC
  5
EB
330
2
100
AcDbEntity
  8
GEB-KONTUR-A
 48
25.0
100
AcDbCircle
 10
186.999999999999
 20
108.000000000266
 30
0.0
 40
20.99999999999997
100
AcDbArc
 50
81.78678929825057
 51
89.99999999999023
  0
ARC
  5
EC
330
2
100
AcDbEntity
  8
GEB-KONTUR-A
 48
25.0
100
AcDbCircle
 10
186.999999999999
 20
108.0000000002401
 30
0.0
 40
21.00000000000004
100
AcDbArc
 50
10.98057542761199
 51
81.78678929826041
  0
ARC
  5
ED
330
2
100
AcDbEntity
  8
GEB-KONTUR-A
 48
25.0
100
AcDbCircle
 10
-187.0
 20
33.00000000023979
 30
0.0
 40
20.9999999999998
100
AcDbArc
 50
240.4935207038033
 51
261.7867892982604
  0
ARC
  5
EE
330
2
100
AcDbEntity
  8
GEB-KONTUR-A
 48
25.0
100
AcDbCircle
 10
-187.0000000000002
 20
33.00000000026578
 30
0.0
 40
20.99999999999994
100
AcDbArc
 50
261.7867892982703
 51
270.0000000000098
  0
LINE
  5
EF
330
2
100
AcDbEntity
  8
GEB-KONTUR-A
 48
25.0
100
AcDbLine
 10
156.4999999999989
 20
129.0000000002711
 30
0.0
 11
-156.5000000000003
 21
129.0000000002706
 31
0.0
  0
LINE
  5
F0
330
2
100
AcDbEntity
  8
GEB-KONTUR-A
 48
25.0
100
AcDbLine
 10
114.4526936145048
 20
12.00000000027156
 30
0.0
 11
156.4999999999991
 21
12.00000000027162
 31
0.0
  0
LINE
  5
F1
330
2
100
AcDbEntity
  8
GEB-KONTUR-A
 48
25.0
100
AcDbLine
 10
-156.5000000000002
 20
12.00000000027111
 30
0.0
 11
-114.4526936112795
 21
12.00000000027118
 31
0.0
  0
ARC
  5
F2
330
2
100
AcDbEntity
  8
GEB-KONTUR-A
 48
25.0
100
AcDbCircle
 10
186.9999999999992
 20
33.00000000024044
 30
0.0
 40
20.99999999999984
100
AcDbArc
 50
278.2132107017396
 51
315.5846914028075
  0
ARC
  5
F3
330
2
100
AcDbEntity
  8
GEB-KONTUR-A
 48
25.0
100
AcDbCircle
 10
186.999999999999
 20
33.00000000026638
 30
0.0
 40
20.99999999999997
100
AcDbArc
 50
269.9999999999902
 51
278.2132107017297
  0
LINE
  5
F4
330
2
100
AcDbEntity
  8
GEB-KONTUR-A
 48
25.0
100
AcDbLine
 10
-187.0000000000003
 20
129.0000000002653
 30
0.0
 11
-156.5000000000003
 21
129.0000000002706
 31
0.0
  0
LINE
  5
F5
330
2
100
AcDbEntity
  8
GEB-KONTUR-A
 48
25.0
100
AcDbLine
 10
-156.5000000000003
 20
129.0000000002706
 30
0.0
 11
-156.5000000000002
 21
124.0000000002706
 31
0.0
  0
LINE
  5
F6
330
2
100
AcDbEntity
  8
GEB-KONTUR-A
 48
25.0
100
AcDbLine
 10
-190.0000000000002
 20
124.0000000002648
 30
0.0
 11
-190.0000000000002
 21
128.7846096910914
 31
0.0
  0
LINE
  5
F7
330
2
100
AcDbEntity
  8
GEB-KONTUR-A
 48
25.0
100
AcDbLine
 10
156.499999999999
 20
124.0000000002711
 30
0.0
 11
156.4999999999989
 21
129.0000000002711
 31
0.0
  0
LINE
  5
F8
330
2
100
AcDbEntity
  8
GEB-KONTUR-A
 48
25.0
100
AcDbLine
 10
156.4999999999989
 20
129.0000000002711
 30
0.0
 11
186.999999999999
 21
129.0000000002659
 31
0.0
  0
LINE
  5
F9
330
2
100
AcDbEntity
  8
GEB-KONTUR-A
 48
25.0
100
AcDbLine
 10
189.9999999999989
 20
124.0000000002654
 30
0.0
 11
189.9999999999989
 21
128.784609691092
 31
0.0
  0
LINE
  5
FA
330
2
100
AcDbEntity
  8
GEB-KONTUR-A
 48
25.0
100
AcDbLine
 10
-156.5000000000002
 20
12.00000000027111
 30
0.0
 11
-187.0000000000002
 21
12.00000000026585
 31
0.0
  0
LINE
  5
FB
330
2
100
AcDbEntity
  8
GEB-KONTUR-A
 48
25.0
100
AcDbLine
 10
-190.0000000000001
 20
12.21539030943881
 30
0.0
 11
-190.0000000000001
 21
14.25237646287734
 31
0.0
  0
LINE
  5
FC
330
2
100
AcDbEntity
  8
GEB-KONTUR-A
 48
25.0
100
AcDbLine
 10
-156.5000000000002
 20
17.21539030944456
 30
0.0
 11
-156.5000000000002
 21
12.00000000027111
 31
0.0
  0
LINE
  5
FD
330
2
100
AcDbEntity
  8
GEB-KONTUR-A
 48
25.0
100
AcDbLine
 10
186.999999999999
 20
12.00000000026647
 30
0.0
 11
156.4999999999991
 21
12.00000000027162
 31
0.0
  0
LINE
  5
FE
330
2
100
AcDbEntity
  8
GEB-KONTUR-A
 48
25.0
100
AcDbLine
 10
156.4999999999991
 20
12.00000000027162
 30
0.0
 11
156.4999999999991
 21
17.21539030944507
 31
0.0
  0
LINE
  5
FF
330
2
100
AcDbEntity
  8
GEB-KONTUR-A
 48
25.0
100
AcDbLine
 10
189.9999999999991
 20
12.21539030943943
 30
0.0
 11
189.9999999999991
 21
17.21539030943941
 31
0.0
  0
LINE
  5
100
330
2
100
AcDbEntity
  8
GEB-KONTUR-A
 48
25.0
100
AcDbLine
 10
-190.0000000000002
 20
124.0000000002648
 30
0.0
 11
-156.5000000000003
 21
124.0000000002706
 31
0.0
  0
LINE
  5
101
330
2
100
AcDbEntity
  8
GEB-KONTUR-A
 48
25.0
100
AcDbLine
 10
110.4999999999992
 20
124.000000000271
 30
0.0
 11
156.499999999999
 21
124.0000000002711
 31
0.0
  0
LINE
  5
102
330
2
100
AcDbEntity
  8
GEB-KONTUR-A
 48
25.0
100
AcDbLine
 10
-80.50000000000039
 20
124.0000000002707
 30
0.0
 11
80.49999999999926
 21
124.000000000271
 31
0.0
  0
LINE
  5
103
330
2
100
AcDbEntity
  8
GEB-KONTUR-A
 48
25.0
100
AcDbLine
 10
-156.5000000000002
 20
124.0000000002706
 30
0.0
 11
-110.5000000000004
 21
124.0000000002707
 31
0.0
  0
LINE
  5
104
330
2
100
AcDbEntity
  8
GEB-KONTUR-A
 48
25.0
100
AcDbLine
 10
156.499999999999
 20
124.0000000002711
 30
0.0
 11
189.999999999999
 21
124.0000000002655
 31
0.0
  0
LINE
  5
105
330
2
100
AcDbEntity
  8
GEB-KONTUR-A
 48
25.0
100
AcDbLine
 10
-116.452693596545
 20
17.21539030944463
 30
0.0
 11
-156.5000000000002
 21
17.21539030944456
 31
0.0
  0
LINE
  5
106
330
2
100
AcDbEntity
  8
GEB-KONTUR-A
 48
25.0
100
AcDbLine
 10
156.4999999999991
 20
17.21539030944507
 30
0.0
 11
116.4526936204992
 21
17.21539030944501
 31
0.0
  0
LINE
  5
107
330
2
100
AcDbEntity
  8
GEB-KONTUR-A
 48
25.0
100
AcDbLine
 10
-156.5000000000002
 20
17.21539030944456
 30
0.0
 11
-183.459753535865
 21
17.21539030943992
 31
0.0
  0
LINE
  5
108
330
2
100
AcDbEntity
  8
GEB-KONTUR-A
 48
25.0
100
AcDbLine
 10
189.9999999999991
 20
17.21539030943941
 30
0.0
 11
156.499999999999
 21
17.21539030944506
 31
0.0
  0
LINE
  5
109
330
2
100
AcDbEntity
  8
GEB-KONTUR-A
 48
25.0
100
AcDbLine
 10
119.6446535358859
 20
123.0000000002969
 30
0.0
 11
111.6446608592889
 21
123.0000000002993
 31
0.0
  0
LINE
  5
10A
330
2
100
AcDbEntity
  8
GEB-KONTUR-A
 48
25.0
100
AcDbLine
 10
52.355339825986
 20
123.0000000002992
 30
0.0
 11
44.35533905933596
 21
123.0000000002969
 31
0.0
  0
LINE
  5
10B
330
2
100
AcDbEntity
  8
GEB-KONTUR-A
 48
25.0
100
AcDbLine
 10
-31.85534646404983
 20
123.0000000002968
 30
0.0
 11
-39.85533914068674
 21
123.0000000002992
 31
0.0
  0
LINE
  5
10C
330
2
100
AcDbEntity
  8
GEB-KONTUR-A
 48
25.0
100
AcDbLine
 10
-111.6446601740315
 20
123.0000000002991
 30
0.0
 11
-119.6446609406839
 21
123.0000000002968
 31
0.0
  0
LINE
  5
10D
330
2
100
AcDbEntity
  8
GEB-KONTUR-A
 48
25.0
100
AcDbLine
 10
-119.6446609406839
 20
123.0000000002967
 30
0.0
 11
-186.8208798574004
 21
123.0000000002967
 31
0.0
  0
LINE
  5
10E
330
2
100
AcDbEntity
  8
GEB-KONTUR-A
 48
25.0
100
AcDbLine
 10
186.8208798573995
 20
123.000000000297
 30
0.0
 11
119.6446535358859
 21
123.0000000002969
 31
0.0
  0
LINE
  5
10F
330
2
100
AcDbEntity
  8
GEB-KONTUR-A
 48
25.0
100
AcDbLine
 10
84.31966079821325
 20
123.0000000002993
 30
0.0
 11
52.355339825986
 21
123.0000000002992
 31
0.0
  0
LINE
  5
110
330
2
100
AcDbEntity
  8
GEB-KONTUR-A
 48
25.0
100
AcDbLine
 10
111.6446608592889
 20
123.0000000002993
 30
0.0
 11
106.6803392017858
 21
123.0000000002993
 31
0.0
  0
LINE
  5
111
330
2
100
AcDbEntity
  8
GEB-KONTUR-A
 48
25.0
100
AcDbLine
 10
-106.6803392017845
 20
123.0000000002991
 30
0.0
 11
-111.6446601740315
 21
123.0000000002991
 31
0.0
  0
LINE
  5
112
330
2
100
AcDbEntity
  8
GEB-KONTUR-A
 48
25.0
100
AcDbLine
 10
-39.85533914068674
 20
123.0000000002992
 30
0.0
 11
-84.31966079821643
 21
123.0000000002991
 31
0.0
  0
LINE
  5
113
330
2
100
AcDbEntity
  8
GEB-KONTUR-A
 48
25.0
100
AcDbLine
 10
44.35533905933596
 20
123.0000000002969
 30
0.0
 11
-31.85534646404983
 21
123.0000000002968
 31
0.0
  0
ARC
  5
114
330
2
100
AcDbEntity
  8
GEB-KONTUR-A
 48
25.0
100
AcDbCircle
 10
-186.8208798574006
 20
108.000000000298
 30
0.0
 40
14.99999999999873
100
AcDbArc
 50
90.0
 51
101.5369590328181
  0
SPLINE
  5
115
330
2
100
AcDbEntity
  8
GEB-KONTUR-A
 48
25.0
100
AcDbSpline
210
0.0
220
0.0
230
1.0
 70
    24
 71
     3
 72
     8
 73
     4
 74
     0
 42
0.0000000001
 43
0.0000000001
 40
2.764763203897179
 40
2.764763203897179
 40
2.764763203897179
 40
2.764763203897179
 40
3.482661776591393
 40
3.482661776591393
 40
3.482661776591393
 40
3.482661776591393
 10
-201.8208798574004
 20
66.99999999933912
 30
0.0
 10
-201.8208798574004
 20
65.55138638619547
 30
0.0
 10
-201.8208798574004
 20
64.33542272821167
 30
0.0
 10
-201.8208798574004
 20
63.39794823769072
 30
0.0
  0
LINE
  5
116
330
2
100
AcDbEntity
  8
GEB-KONTUR-A
 48
25.0
100
AcDbLine
 10
-201.8208798574004
 20
63.39794823769071
 30
0.0
 11
-201.8208798574004
 21
61.00000000030559
 31
0.0
  0
LINE
  5
117
330
2
100
AcDbEntity
  8
GEB-KONTUR-A
 48
25.0
100
AcDbLine
 10
-201.8208798574004
 20
61.0000000003145
 30
0.0
 11
-201.8208798574004
 21
24.0000000003145
 31
0.0
  0
SPLINE
  5
118
330
2
100
AcDbEntity
  8
GEB-KONTUR-A
 48
25.0
100
AcDbSpline
210
0.0
220
0.0
230
1.0
 70
     8
 71
     3
 72
    24
 73
    20
 74
     0
 42
0.0000000001
 43
0.0000000001
 40
0.333514928312078
 40
0.333514928312078
 40
0.333514928312078
 40
0.333514928312078
 40
0.3684867731477767
 40
0.3684867731477767
 40
0.5053826700814379
 40
0.5053826700814379
 40
0.642278567015099
 40
0.642278567015099
 40
0.9413219211313691
 40
0.9413219211313691
 40
1.240365275247639
 40
1.240365275247639
 40
1.534268046973519
 40
1.534268046973519
 40
1.828170818699399
 40
1.828170818699399
 40
2.122073590425278
 40
2.122073590425278
 40
2.415976362151158
 40
2.415976362151158
 40
2.415976362151158
 40
2.415976362151158
 10
-189.8208798574007
 20
122.6969384569957
 30
0.0
 10
-189.9048735350982
 20
122.6797933193308
 30
0.0
 10
-189.986010961946
 20
122.6617559867055
 30
0.0
 10
-190.3699555381442
 20
122.5695415968161
 30
0.0
 10
-190.6781232165109
 20
122.4719785090593
 30
0.0
 10
-191.2477620075121
 20
122.2330885805891
 30
0.0
 10
-191.5099633518546
 20
122.0915517787813
 30
0.0
 10
-192.2272109768938
 20
121.6260514980825
 30
0.0
 10
-192.6916247019924
 20
121.1882358589564
 30
0.0
 10
-193.5027355319973
 20
120.1060754566225
 30
0.0
 10
-193.8510166801161
 20
119.4612658689611
 30
0.0
 10
-194.4108165822132
 20
118.1454960538548
 30
0.0
 10
-194.6592897838266
 20
117.399471589696
 30
0.0
 10
-195.0859275233235
 20
115.7569376327116
 30
0.0
 10
-195.2642772365369
 20
114.8604922566726
 30
0.0
 10
-195.5469329039599
 20
112.9769358596261
 30
0.0
 10
-195.6515630725539
 20
111.9880526153487
 30
0.0
 10
-195.7885551349791
 20
109.9894325558336
 30
0.0
 10
-195.8208798574005
 20
108.9796759060533
 30
0.0
 10
-195.8208798574005
 20
108.0000000003003
 30
0.0
  0
LINE
  5
119
330
2
100
AcDbEntity
  8
GEB-KONTUR-A
 48
25.0
100
AcDbLine
 10
-186.8208798574004
 20
123.0000000002958
 30
0.0
 11
-192.7400000000004
 21
123.0000000002958
 31
0.0
  0
LINE
  5
11A
330
2
100
AcDbEntity
  8
GEB-KONTUR-A
 48
25.0
100
AcDbLine
 10
-195.8208798574005
 20
108.0000000003002
 30
0.0
 11
-195.8208798574004
 21
91.00000000030027
 31
0.0
  0
SPLINE
  5
11B
330
2
100
AcDbEntity
  8
GEB-KONTUR-A
 48
25.0
100
AcDbSpline
210
0.0
220
0.0
230
1.0
 70
     8
 71
     3
 72
    14
 73
    10
 74
     0
 42
0.0000000001
 43
0.0000000001
 40
-3.184844382291897
 40
-3.184844382291897
 40
-3.184844382291897
 40
-3.184844382291897
 40
-2.744651566443887
 40
-2.744651566443887
 40
-2.196118686935228
 40
-2.196118686935228
 40
-0.985805645621
 40
-0.985805645621
 40
0.0
 40
0.0
 40
0.0
 40
0.0
 10
-195.8208798574005
 20
91.00000000030027
 30
0.0
 10
-195.8208798574005
 20
89.98835937077201
 30
0.0
 10
-195.9348291883132
 20
89.00887723410653
 30
0.0
 10
-196.3927463440667
 20
86.78683601995146
 30
0.0
 10
-196.7847598860954
 20
85.55911169573681
 30
0.0
 10
-198.128581450988
 20
81.81883120919209
 30
0.0
 10
-199.369683662905
 20
79.02959133137263
 30
0.0
 10
-201.1303430539353
 20
73.33285953148993
 30
0.0
 10
-201.8208798574004
 20
70.28601881903701
 30
0.0
 10
-201.8208798574004
 20
67.00000000030034
 30
0.0
  0
LINE
  5
11C
330
2
100
AcDbEntity
  8
GEB-KONTUR-A
 48
25.0
100
AcDbLine
 10
21.50000855269326
 20
77.77124286692028
 30
0.0
 11
21.5000085526936
 21
71.00000000030579
 31
0.0
  0
SPLINE
  5
11D
330
2
100
AcDbEntity
  8
GEB-KONTUR-A
 48
25.0
100
AcDbSpline
210
0.0
220
0.0
230
1.0
 70
     8
 71
     3
 72
    12
 73
     8
 74
     0
 42
0.0000000001
 43
0.0000000001
 40
3.129459598927688
 40
3.129459598927688
 40
3.129459598927688
 40
3.129459598927688
 40
3.12945965673351
 40
3.12945965673351
 40
3.812254659543589
 40
3.812254659543589
 40
4.495049662353667
 40
4.495049662353667
 40
4.495049662353667
 40
4.495049662353667
 10
21.50000855269377
 20
77.77124286692028
 30
0.0
 10
21.50000855269366
 20
77.77124305960637
 30
0.0
 10
21.50000855269366
 20
77.77124325229245
 30
0.0
 10
21.50000855269366
 20
80.04722678767878
 30
0.0
 10
22.16960782478714
 20
82.37381006626097
 30
0.0
 10
24.10238484495744
 20
86.86390425855652
 30
0.0
 10
25.36201688134355
 20
89.02894060693268
 30
0.0
 10
26.50000855269366
 20
91.00000000030133
 30
0.0
  0
ARC
  5
11E
330
2
100
AcDbEntity
  8
GEB-KONTUR-A
 48
25.0
100
AcDbCircle
 10
26.50000855269457
 20
71.00000000031766
 30
0.0
 40
5.0
100
AcDbArc
 50
90.0
 51
180.0
  0
ARC
  5
11F
330
2
100
AcDbEntity
  8
GEB-KONTUR-A
 48
25.0
100
AcDbCircle
 10
-192.7400000000004
 20
108.0000000002958
 30
0.0
 40
15.00000000000001
100
AcDbArc
 50
89.99999999998697
 51
180.0
  0
ARC
  5
120
330
2
100
AcDbEntity
  8
GEB-KONTUR-A
 48
25.0
100
AcDbCircle
 10
-192.7400000000103
 20
29.00000000026923
 30
0.0
 40
14.99999999999
100
AcDbArc
 50
207.8712889318786
 51
318.189685104342
  0
LINE
  5
121
330
2
100
AcDbEntity
  8
GEB-KONTUR-A
 48
25.0
100
AcDbLine
 10
-207.7400000000005
 20
108.0000000002992
 30
0.0
 11
-207.7400000000005
 21
34.0000000002995
 31
0.0
  0
LINE
  5
122
330
2
100
AcDbEntity
  8
GEB-KONTUR-A
 48
25.0
100
AcDbLine
 10
201.8208798573996
 20
24.00000000031483
 30
0.0
 11
201.8208798573995
 21
61.00000000031482
 31
0.0
  0
ARC
  5
123
330
2
100
AcDbEntity
  8
GEB-KONTUR-A
 48
25.0
100
AcDbCircle
 10
186.8208798573995
 20
108.000000000297
 30
0.0
 40
14.99999999999996
100
AcDbArc
 50
0.0
 51
90.0
  0
LINE
  5
124
330
2
100
AcDbEntity
  8
GEB-KONTUR-A
 48
25.0
100
AcDbLine
 10
201.8208798573996
 20
61.00000000030603
 30
0.0
 11
201.8208798573996
 21
63.39794823769112
 31
0.0
  0
SPLINE
  5
125
330
2
100
AcDbEntity
  8
GEB-KONTUR-A
 48
25.0
100
AcDbSpline
210
0.0
220
0.0
230
1.0
 70
    24
 71
     3
 72
    19
 73
    15
 74
     0
 42
0.0000000001
 43
0.0000000001
 40
0.0
 40
0.0
 40
0.0
 40
0.0
 40
0.8706654441478482
 40
0.8706654441478482
 40
1.160887258863797
 40
1.160887258863797
 40
1.741330888295696
 40
1.741330888295696
 40
1.741330888295696
 40
2.321774517727595
 40
2.321774517727595
 40
2.611996332443545
 40
2.611996332443545
 40
3.482661776591393
 40
3.482661776591393
 40
3.482661776591393
 40
3.482661776591393
 10
201.8208798573996
 20
63.39794823769103
 30
0.0
 10
201.8208798573996
 20
64.53491476013927
 30
0.0
 10
201.8208798573996
 20
66.08391950041962
 30
0.0
 10
201.8208798573996
 20
68.57914061970038
 30
0.0
 10
201.8208798573996
 20
69.23790913359839
 30
0.0
 10
201.8208798573996
 20
71.30350831652717
 30
0.0
 10
201.8208798573996
 20
72.82630451521423
 30
0.0
 10
201.8208798573996
 20
74.45584691002726
 30
0.0
 10
201.8208798573996
 20
76.08538930484029
 30
0.0
 10
201.8208798573996
 20
77.82053608983402
 30
0.0
 10
201.8208798573996
 20
80.50546528882177
 30
0.0
 10
201.8208798573996
 20
81.4223757750158
 30
0.0
 10
201.8208798573996
 20
85.15425137554727
 30
0.0
 10
201.8208798573996
 20
88.09778185313751
 30
0.0
 10
201.8208798573996
 20
91.00000000029702
 30
0.0
  0
LINE
  5
126
330
2
100
AcDbEntity
  8
GEB-KONTUR-A
 48
25.0
100
AcDbLine
 10
201.8208798573996
 20
91.000000000297
 30
0.0
 11
201.8208798573995
 21
108.000000000297
 31
0.0
  0
LINE
  5
127
330
2
100
AcDbEntity
  8
GEB-KONTUR-A
 48
25.0
100
AcDbLine
 10
110.4999999999995
 20
123.0000000002963
 30
0.0
 11
110.4999999999995
 21
128.0000000002963
 31
0.0
  0
LINE
  5
128
330
2
100
AcDbEntity
  8
GEB-KONTUR-A
 48
25.0
100
AcDbLine
 10
80.49999999999954
 20
123.0000000002963
 30
0.0
 11
80.49999999999954
 21
128.0000000002963
 31
0.0
  0
LINE
  5
129
330
2
100
AcDbEntity
  8
GEB-KONTUR-A
 48
25.0
100
AcDbLine
 10
-80.50000000000045
 20
123.0000000002962
 30
0.0
 11
-80.50000000000045
 21
128.0000000002962
 31
0.0
  0
LINE
  5
12A
330
2
100
AcDbEntity
  8
GEB-KONTUR-A
 48
25.0
100
AcDbLine
 10
-110.5000000000004
 20
123.0000000002962
 30
0.0
 11
-110.5000000000004
 21
128.0000000002962
 31
0.0
  0
LINE
  5
12B
330
2
100
AcDbEntity
  8
GEB-KONTUR-A
 48
25.0
100
AcDbLine
 10
84.31966079821325
 20
123.0000000002993
 30
0.0
 11
106.6803392017858
 21
123.0000000002993
 31
0.0
  0
LINE
  5
12C
330
2
100
AcDbEntity
  8
GEB-KONTUR-A
 48
25.0
100
AcDbLine
 10
80.49999999999954
 20
128.0000000002963
 30
0.0
 11
110.4999999999995
 21
128.0000000002963
 31
0.0
  0
LINE
  5
12D
330
2
100
AcDbEntity
  8
GEB-KONTUR-A
 48
25.0
100
AcDbLine
 10
-106.6803392017845
 20
123.0000000002991
 30
0.0
 11
-84.31966079821643
 21
123.0000000002992
 31
0.0
  0
LINE
  5
12E
330
2
100
AcDbEntity
  8
GEB-KONTUR-A
 48
25.0
100
AcDbLine
 10
-110.5000000000004
 20
128.0000000002962
 30
0.0
 11
-80.50000000000045
 21
128.0000000002962
 31
0.0
  0
LINE
  5
12F
330
2
100
AcDbEntity
  8
GEB-KONTUR-A
 48
25.0
100
AcDbLine
 10
-21.50000599246607
 20
65.00000000031673
 30
0.0
 11
-21.50000599246618
 21
71.00000000031672
 31
0.0
  0
LINE
  5
130
330
2
100
AcDbEntity
  8
GEB-KONTUR-A
 48
25.0
100
AcDbLine
 10
-26.50000599246619
 20
76.00000000031673
 30
0.0
 11
-71.50000000000045
 21
76.00000000031669
 31
0.0
  0
SPLINE
  5
131
330
2
100
AcDbEntity
  8
GEB-KONTUR-A
 48
25.0
100
AcDbSpline
210
0.0
220
0.0
230
1.0
 70
    24
 71
     3
 72
    10
 73
     6
 74
     0
 42
0.0000000001
 43
0.0000000001
 40
0.0000000000000065
 40
0.0000000000000065
 40
0.0000000000000065
 40
0.0000000000000065
 40
0.6422949512942089
 40
0.6422949512942089
 40
0.8031582396869618
 40
0.8031582396869618
 40
0.8031582396869618
 40
0.8031582396869618
 10
-21.50000599246732
 20
74.39992740790215
 30
0.0
 10
-21.50000599246732
 20
75.31880176490445
 30
0.0
 10
-21.50000599246738
 20
76.60568341665352
 30
0.0
 10
-21.50000599246738
 20
78.52371020343624
 30
0.0
 10
-21.50000599246744
 20
78.92576457170237
 30
0.0
 10
-21.50000599246744
 20
79.34360763793231
 30
0.0
  0
SPLINE
  5
132
330
2
100
AcDbEntity
  8
GEB-KONTUR-A
 48
25.0
100
AcDbSpline
210
0.0
220
0.0
230
1.0
 70
     8
 71
     3
 72
    12
 73
     8
 74
     0
 42
0.0000000001
 43
0.0000000001
 40
-0.0017476381471978
 40
-0.0017476381471978
 40
-0.0017476381471978
 40
-0.0017476381471978
 40
0.0
 40
0.0
 40
0.7510928740399303
 40
0.7510928740399303
 40
1.345143191234877
 40
1.345143191234877
 40
1.345143191234877
 40
1.345143191234877
 10
-24.8333373283109
 20
91.00000000030101
 30
0.0
 10
-24.83097113671306
 20
90.99474288440651
 30
0.0
 10
-24.82860531779073
 20
90.9894854183846
 30
0.0
 10
-23.80962948730598
 20
88.72454584778983
 30
0.0
 10
-22.93080019203535
 20
86.550670737931
 30
0.0
 10
-21.85491412300291
 20
82.83014534870311
 30
0.0
 10
-21.50000599246744
 20
81.06106921661075
 30
0.0
 10
-21.50000599246744
 20
79.343608298573
 30
0.0
  0
LINE
  5
133
330
2
100
AcDbEntity
  8
GEB-KONTUR-A
 48
25.0
100
AcDbLine
 10
-21.50000599246687
 20
71.00000000030785
 30
0.0
 11
-21.50000599246732
 21
74.39992740790216
 31
0.0
  0
ARC
  5
134
330
2
100
AcDbEntity
  8
GEB-KONTUR-A
 48
25.0
100
AcDbCircle
 10
-26.50000599246619
 20
71.00000000031672
 30
0.0
 40
5.0
100
AcDbArc
 50
0.0
 51
90.0
  0
ARC
  5
135
330
2
100
AcDbEntity
  8
GEB-KONTUR-A
 48
25.0
100
AcDbCircle
 10
-71.50000000000045
 20
71.00000000031759
 30
0.0
 40
4.999999999999999
100
AcDbArc
 50
0.0
 51
90.00000000001628
  0
LINE
  5
136
330
2
100
AcDbEntity
  8
GEB-KONTUR-A
 48
25.0
100
AcDbLine
 10
-71.50000000000045
 20
76.00000000031759
 30
0.0
 11
-166.0000298555524
 21
76.0000000003175
 31
0.0
  0
SPLINE
  5
137
330
2
100
AcDbEntity
  8
GEB-KONTUR-A
 48
25.0
100
AcDbSpline
210
0.0
220
0.0
230
1.0
 70
     8
 71
     3
 72
    18
 73
    14
 74
     0
 42
0.0000000001
 43
0.0000000001
 40
-0.8204338871649639
 40
-0.8204338871649639
 40
-0.8204338871649639
 40
-0.8204338871649639
 40
-0.6341052873462795
 40
-0.6341052873462795
 40
-0.4438857866151055
 40
-0.4438857866151055
 40
-0.2445700825865504
 40
-0.2445700825865504
 40
-0.1216222783583489
 40
-0.1216222783583489
 40
0.0
 40
0.0
 40
0.0011182955778728
 40
0.0011182955778728
 40
0.0011182955778728
 40
0.0011182955778728
 10
-164.0000530763539
 20
71.00000000031899
 30
0.0
 10
-164.0000530763539
 20
71.61925576788092
 30
0.0
 10
-164.0380683907529
 20
72.23119130757729
 30
0.0
 10
-164.1904249378975
 20
73.38993890736102
 30
0.0
 10
-164.3045488524253
 20
73.92141284815721
 30
0.0
 10
-164.6110902039983
 20
74.85048614571252
 30
0.0
 10
-164.8034149691964
 20
75.22972828201415
 30
0.0
 10
-165.1690594963987
 20
75.66908855105642
 30
0.0
 10
-165.3200851217552
 20
75.79414499460262
 30
0.0
 10
-165.6431843360137
 20
75.95905249781742
 30
0.0
 10
-165.8139106396646
 20
75.99926433320579
 30
0.0
 10
-165.9966966097284
 20
75.99999666540769
 30
0.0
 10
-165.9983628155219
 20
76.0000000003175
 30
0.0
 10
-166.0000298555524
 20
76.0000000003175
 30
0.0
  0
LINE
  5
138
330
2
100
AcDbEntity
  8
GEB-KONTUR-A
 48
25.0
100
AcDbLine
 10
-173.9999701444484
 20
76.0000000003175
 30
0.0
 11
-166.0000298555524
 21
76.0000000003175
 31
0.0
  0
SPLINE
  5
139
330
2
100
AcDbEntity
  8
GEB-KONTUR-A
 48
25.0
100
AcDbSpline
210
0.0
220
0.0
230
1.0
 70
     8
 71
     3
 72
    18
 73
    14
 74
     0
 42
0.0000000001
 43
0.0000000001
 40
0.0
 40
0.0
 40
0.0
 40
0.0
 40
0.1857767302685586
 40
0.1857767302685586
 40
0.3754328373478581
 40
0.3754328373478581
 40
0.5741582065162271
 40
0.5741582065162271
 40
0.696741862945984
 40
0.696741862945984
 40
0.8180039193569323
 40
0.8180039193569323
 40
0.819118902764278
 40
0.819118902764278
 40
0.819118902764278
 40
0.819118902764278
 10
-175.9999469236469
 20
71.00000000031897
 30
0.0
 10
-175.9999469236469
 20
71.61925576788084
 30
0.0
 10
-175.961931609248
 20
72.23119130757718
 30
0.0
 10
-175.8095750621032
 20
73.38993890736102
 30
0.0
 10
-175.6954511475754
 20
73.92141284815723
 30
0.0
 10
-175.3889097960025
 20
74.85048614571252
 30
0.0
 10
-175.1965850308045
 20
75.22972828201414
 30
0.0
 10
-174.830940503602
 20
75.66908855105644
 30
0.0
 10
-174.6799148782454
 20
75.79414499460263
 30
0.0
 10
-174.3568156641224
 20
75.9590524977483
 30
0.0
 10
-174.1860893611575
 20
75.99926433320246
 30
0.0
 10
-174.0033033902541
 20
75.99999666540776
 30
0.0
 10
-174.0016371844974
 20
76.0000000003175
 30
0.0
 10
-173.9999701444485
 20
76.0000000003175
 30
0.0
  0
LINE
  5
13A
330
2
100
AcDbEntity
  8
GEB-KONTUR-A
 48
25.0
100
AcDbLine
 10
-173.9999701444485
 20
76.0000000003175
 30
0.0
 11
-186.8208798574004
 21
76.00000000031748
 31
0.0
  0
ARC
  5
13B
330
2
100
AcDbEntity
  8
GEB-KONTUR-A
 48
25.0
100
AcDbCircle
 10
-186.8208798574004
 20
61.00000000031453
 30
0.0
 40
15.00000000000297
100
AcDbArc
 50
90.0
 51
180.0
  0
LINE
  5
13C
330
2
100
AcDbEntity
  8
GEB-KONTUR-A
 48
25.0
100
AcDbLine
 10
9.499999999999772
 20
71.00000000031764
 30
0.0
 11
9.499999999999772
 21
65.00000000031764
 31
0.0
  0
LINE
  5
13D
330
2
100
AcDbEntity
  8
GEB-KONTUR-A
 48
25.0
100
AcDbLine
 10
14.49999999999988
 20
66.00000000031913
 30
0.0
 11
9.499999999999772
 21
71.00000000031764
 31
0.0
  0
LINE
  5
13E
330
2
100
AcDbEntity
  8
GEB-KONTUR-A
 48
25.0
100
AcDbLine
 10
21.50000855269462
 20
71.00000000031766
 30
0.0
 11
9.499999999999772
 21
71.00000000031764
 31
0.0
  0
ARC
  5
13F
330
2
100
AcDbEntity
  8
GEB-KONTUR-A
 48
25.0
100
AcDbCircle
 10
186.8208798573995
 20
61.00000000031482
 30
0.0
 40
15.00000000000297
100
AcDbArc
 50
0.0
 51
90.0
  0
SPLINE
  5
140
330
2
100
AcDbEntity
  8
GEB-KONTUR-A
 48
25.0
100
AcDbSpline
210
0.0
220
0.0
230
1.0
 70
     8
 71
     3
 72
    18
 73
    14
 74
     0
 42
0.0000000001
 43
0.0000000001
 40
-0.8204338888533488
 40
-0.8204338888533488
 40
-0.8204338888533488
 40
-0.8204338888533488
 40
-0.6341052886421128
 40
-0.6341052886421128
 40
-0.4438857875101873
 40
-0.4438857875101873
 40
-0.2445700830617353
 40
-0.2445700830617353
 40
-0.1216222785747022
 40
-0.1216222785747022
 40
0.0
 40
0.0
 40
0.0011182955829257
 40
0.0011182955829257
 40
0.0011182955829257
 40
0.0011182955829257
 10
175.9999469236594
 20
71.00000000031926
 30
0.0
 10
175.9999469236594
 20
71.61925576788132
 30
0.0
 10
175.9619316092605
 20
72.23119130757784
 30
0.0
 10
175.8095750621161
 20
73.38993890736176
 30
0.0
 10
175.6954511475885
 20
73.92141284815806
 30
0.0
 10
175.3889097960162
 20
74.85048614571343
 30
0.0
 10
175.1965850308185
 20
75.22972828201507
 30
0.0
 10
174.8309405036174
 20
75.66908855105703
 30
0.0
 10
174.6799148782614
 20
75.79414499460305
 30
0.0
 10
174.3568156640569
 20
75.9590524977909
 30
0.0
 10
174.186089360673
 20
75.99926433320479
 30
0.0
 10
174.0033033902838
 20
75.99999666540799
 30
0.0
 10
174.0016371845055
 20
76.00000000031776
 30
0.0
 10
173.9999701444674
 20
76.00000000031776
 30
0.0
  0
LINE
  5
141
330
2
100
AcDbEntity
  8
GEB-KONTUR-A
 48
25.0
100
AcDbLine
 10
-23.50000000000045
 20
60.00000000031909
 30
0.0
 11
-23.50000000000045
 21
64.89898852865005
 31
0.0
  0
SPLINE
  5
142
330
2
100
AcDbEntity
  8
GEB-KONTUR-A
 48
25.0
100
AcDbSpline
210
0.0
220
0.0
230
1.0
 70
     8
 71
     3
 72
    12
 73
     8
 74
     0
 42
0.0000000001
 43
0.0000000001
 40
2.766087593981708
 40
2.766087593981708
 40
2.766087593981708
 40
2.766087593981708
 40
2.80325179234625
 40
2.80325179234625
 40
2.880864388917923
 40
2.880864388917923
 40
2.901323611641694
 40
2.901323611641694
 40
2.901323611641694
 40
2.901323611641694
 10
-23.50000000000045
 20
64.89898852865005
 30
0.0
 10
-23.39898079636776
 20
64.91445320718066
 30
0.0
 10
-23.30188217581565
 20
64.92869995838224
 30
0.0
 10
-23.01532734312133
 20
64.96744730306868
 30
0.0
 10
-22.81674400864091
 20
64.98929383366427
 30
0.0
 10
-22.59035771844225
 20
64.99894546578389
 30
0.0
 10
-22.54440768465292
 20
65.00000000031761
 30
0.0
 10
-22.50003584801908
 20
65.00000000031761
 30
0.0
  0
LINE
  5
143
330
2
100
AcDbEntity
  8
GEB-KONTUR-A
 48
25.0
100
AcDbLine
 10
9.500000000158195
 20
65.00000000031764
 30
0.0
 11
-22.50003584801811
 21
65.00000000031761
 31
0.0
  0
SPLINE
  5
144
330
2
100
AcDbEntity
  8
GEB-KONTUR-A
 48
25.0
100
AcDbSpline
210
0.0
220
0.0
230
1.0
 70
     8
 71
     3
 72
    32
 73
    28
 74
     0
 42
0.0000000001
 43
0.0000000001
 40
3.046547730976516
 40
3.046547730976516
 40
3.046547730976516
 40
3.046547730976516
 40
3.148762687559877
 40
3.148762687559877
 40
3.251975146441099
 40
3.251975146441099
 40
3.458400064203542
 40
3.458400064203542
 40
3.760440994652957
 40
3.760440994652957
 40
3.911461459877664
 40
3.911461459877664
 40
3.986971692490017
 40
3.986971692490017
 40
4.024726808796194
 40
4.024726808796194
 40
4.043604366949283
 40
4.043604366949283
 40
4.053043146025827
 40
4.053043146025827
 40
4.0577625355641
 40
4.0577625355641
 40
4.060122230333235
 40
4.060122230333235
 40
4.061302077717803
 40
4.061302077717803
 40
4.062481925102371
 40
4.062481925102371
 40
4.062481925102371
 40
4.062481925102371
 10
9.500000000158195
 20
65.00000000031764
 30
0.0
 10
9.500002713192429
 20
65.00000000031775
 30
0.0
 10
9.535363851910801
 20
64.96464159719649
 30
0.0
 10
9.674863575929634
 20
64.82514756281488
 30
0.0
 10
9.779623175641859
 20
64.7203909201642
 30
0.0
 10
10.17689596607556
 20
64.32312757929178
 30
0.0
 10
10.55644975042014
 20
63.94358089826965
 30
0.0
 10
11.53284466475844
 20
62.96720789868301
 30
0.0
 10
12.22637109338097
 20
62.27368300760649
 30
0.0
 10
13.1661989809354
 20
61.3339451071786
 30
0.0
 10
13.48377153870728
 20
61.01639221569039
 30
0.0
 10
13.8961591154075
 20
60.60415722386068
 30
0.0
 10
14.0332293363702
 20
60.46714378082071
 30
0.0
 10
14.21427121340684
 20
60.2864021225335
 30
0.0
 10
14.27476615189101
 20
60.22602388338565
 30
0.0
 10
14.35744546099846
 20
60.14390752231335
 30
0.0
 10
14.38504492989756
 20
60.11652928200515
 30
0.0
 10
14.42459204712583
 20
60.07794867020945
 30
0.0
 10
14.43770631320831
 20
60.06528855883503
 30
0.0
 10
14.45767353445387
 20
60.04669010668116
 30
0.0
 10
14.46430050147069
 20
60.04067993721516
 30
0.0
 10
14.47524605327589
 20
60.03172455129095
 30
0.0
 10
14.47895318666519
 20
60.0288085624231
 30
0.0
 10
14.48544997850865
 20
60.02463833143086
 30
0.0
 10
14.48774757076387
 20
60.0233120233056
 30
0.0
 10
14.49305661422193
 20
60.02096969061359
 30
0.0
 10
14.49606717538449
 20
60.01995164984823
 30
0.0
 10
14.49999999999977
 20
60.01995164984823
 30
0.0
  0
SPLINE
  5
145
330
2
100
AcDbEntity
  8
GEB-KONTUR-A
 48
25.0
100
AcDbSpline
210
0.0
220
0.0
230
1.0
 70
     8
 71
     3
 72
    32
 73
    28
 74
     0
 42
0.0000000001
 43
0.0000000001
 40
0.0
 40
0.0
 40
0.0
 40
0.0
 40
0.0011798473845651
 40
0.0011798473845651
 40
0.0023596947691302
 40
0.0023596947691302
 40
0.0047193895382605
 40
0.0047193895382605
 40
0.0094387790765209
 40
0.0094387790765209
 40
0.0188775581530419
 40
0.0188775581530419
 40
0.0377551163060837
 40
0.0377551163060837
 40
0.0755102326121674
 40
0.0755102326121674
 40
0.1510204652243348
 40
0.1510204652243348
 40
0.3020409304486696
 40
0.3020409304486696
 40
0.6040818608973393
 40
0.6040818608973393
 40
0.81050677865778
 40
0.81050677865778
 40
0.9137192375380003
 40
0.9137192375380003
 40
1.015934194116429
 40
1.015934194116429
 40
1.015934194116429
 40
1.015934194116429
 10
26.48005690308475
 20
66.00000000031915
 30
0.0
 10
26.48005690308475
 20
66.00393282493435
 30
0.0
 10
26.47903886232314
 20
66.00694338609954
 30
0.0
 10
26.47669652963521
 20
66.01225242956378
 30
0.0
 10
26.4753702215109
 20
66.01455002182189
 30
0.0
 10
26.4711999905212
 20
66.02104681367308
 30
0.0
 10
26.4682840016543
 20
66.02475394706647
 30
0.0
 10
26.45932861573181
 20
66.03569949888123
 30
0.0
 10
26.45331844626617
 20
66.0423264659011
 30
0.0
 10
26.43471999411315
 20
66.06229368715602
 30
0.0
 10
26.42205988273997
 20
66.07540795323942
 30
0.0
 10
26.38347927094367
 20
66.11495507047471
 30
0.0
 10
26.35610103063817
 20
66.14255453937264
 30
0.0
 10
26.27398466956464
 20
66.22523384848541
 30
0.0
 10
26.21360643042033
 20
66.28572878696672
 30
0.0
 10
26.03286477213141
 20
66.46677066400744
 30
0.0
 10
25.89585132909548
 20
66.60384088496646
 30
0.0
 10
25.48361633726336
 20
67.01622846167025
 30
0.0
 10
25.16606344577906
 20
67.3338010194384
 30
0.0
 10
24.22632554534903
 20
68.27362890699541
 30
0.0
 10
23.53280065427805
 20
68.9671553356122
 30
0.0
 10
22.55642765470498
 20
69.94355024993649
 30
0.0
 10
22.1768809736912
 20
70.32310403427247
 30
0.0
 10
21.77961763283093
 20
70.72037682469352
 30
0.0
 10
21.67486099018424
 20
70.82513642440162
 30
0.0
 10
21.53536695581249
 20
70.96463614841018
 30
0.0
 10
21.50000855269462
 20
70.99999728712507
 30
0.0
 10
21.50000855269457
 20
71.00000000015919
 30
0.0
  0
LINE
  5
146
330
2
100
AcDbEntity
  8
GEB-KONTUR-A
 48
25.0
100
AcDbLine
 10
186.8208798573995
 20
76.00000000031776
 30
0.0
 11
173.9999701444674
 21
76.00000000031776
 31
0.0
  0
LINE
  5
147
330
2
100
AcDbEntity
  8
GEB-KONTUR-A
 48
25.0
100
AcDbLine
 10
166.0000298555314
 20
76.00000000031776
 30
0.0
 11
173.9999701444674
 21
76.00000000031776
 31
0.0
  0
SPLINE
  5
148
330
2
100
AcDbEntity
  8
GEB-KONTUR-A
 48
25.0
100
AcDbSpline
210
0.0
220
0.0
230
1.0
 70
     8
 71
     3
 72
    18
 73
    14
 74
     0
 42
0.0000000001
 43
0.0000000001
 40
0.0
 40
0.0
 40
0.0
 40
0.0
 40
0.1857767302686033
 40
0.1857767302686033
 40
0.3754328373479424
 40
0.3754328373479424
 40
0.5741582065163234
 40
0.5741582065163234
 40
0.6967418629458763
 40
0.6967418629458763
 40
0.8180039194844578
 40
0.8180039194844578
 40
0.8191189028832283
 40
0.8191189028832283
 40
0.8191189028832283
 40
0.8191189028832283
 10
164.0000530763397
 20
71.00000000031925
 30
0.0
 10
164.0000530763397
 20
71.61925576788125
 30
0.0
 10
164.0380683907386
 20
72.23119130757774
 30
0.0
 10
164.190424937883
 20
73.38993890736176
 30
0.0
 10
164.3045488524107
 20
73.92141284815807
 30
0.0
 10
164.6110902039829
 20
74.85048614571347
 30
0.0
 10
164.8034149691805
 20
75.2297282820151
 30
0.0
 10
165.1690594963817
 20
75.66908855105703
 30
0.0
 10
165.3200851217376
 20
75.79414499460304
 30
0.0
 10
165.6431843360285
 20
75.95905249783498
 30
0.0
 10
165.8139106398502
 20
75.99926433320688
 30
0.0
 10
165.9966966097021
 20
75.99999666540793
 30
0.0
 10
165.9983628155066
 20
76.00000000031776
 30
0.0
 10
166.0000298555315
 20
76.00000000031776
 30
0.0
  0
LINE
  5
149
330
2
100
AcDbEntity
  8
GEB-KONTUR-A
 48
25.0
100
AcDbLine
 10
166.0000298555315
 20
76.00000000031776
 30
0.0
 11
26.50000855269457
 21
76.00000000031764
 31
0.0
  0
LINE
  5
14A
330
2
100
AcDbEntity
  8
GEB-KONTUR-A
 48
25.0
100
AcDbLine
 10
-175.9999469236469
 20
71.00000000031897
 30
0.0
 11
-175.9999469236469
 21
24.00000000031898
 31
0.0
  0
LINE
  5
14B
330
2
100
AcDbEntity
  8
GEB-KONTUR-A
 48
25.0
100
AcDbLine
 10
175.9999469236594
 20
71.00000000031925
 30
0.0
 11
175.9999469236595
 21
24.00000000031925
 31
0.0
  0
LINE
  5
14C
330
2
100
AcDbEntity
  8
GEB-KONTUR-A
 48
25.0
100
AcDbLine
 10
-164.0000530763539
 20
71.00000000031897
 30
0.0
 11
-164.0000530763539
 21
24.00000000031898
 31
0.0
  0
LINE
  5
14D
330
2
100
AcDbEntity
  8
GEB-KONTUR-A
 48
25.0
100
AcDbLine
 10
164.0000530763397
 20
71.00000000031925
 30
0.0
 11
164.0000530763397
 21
24.00000000031924
 31
0.0
  0
SPLINE
  5
14E
330
2
100
AcDbEntity
  8
GEB-KONTUR-A
 48
25.0
100
AcDbSpline
210
0.0
220
0.0
230
1.0
 70
     8
 71
     3
 72
    18
 73
    14
 74
     0
 42
0.0000000001
 43
0.0000000001
 40
-0.0011193378148386
 40
-0.0011193378148386
 40
-0.0011193378148386
 40
-0.0011193378148386
 40
0.0
 40
0.0
 40
0.1149790787519741
 40
0.1149790787519741
 40
0.2346399683311417
 40
0.2346399683311417
 40
0.4343867920283911
 40
0.4343867920283911
 40
0.630683438373417
 40
0.630683438373417
 40
0.8205146385314151
 40
0.8205146385314151
 40
0.8205146385314151
 40
0.8205146385314151
 10
173.9999701444675
 20
19.00000000031777
 30
0.0
 10
174.0016387381577
 20
19.00000000031777
 30
0.0
 10
174.003306495808
 20
19.00000334144599
 30
0.0
 10
174.176200765401
 20
19.00069668898123
 30
0.0
 10
174.3381631563361
 20
19.03667267347949
 30
0.0
 10
174.6503869226507
 20
19.18617638659966
 30
0.0
 10
174.798879758449
 20
19.30232758707561
 30
0.0
 10
175.166336213589
 20
19.72025757277076
 30
0.0
 10
175.3624204266404
 20
20.0901098553791
 30
0.0
 10
175.6811587772016
 20
21.01749355322038
 30
0.0
 10
175.8014546242141
 20
21.56133779395458
 30
0.0
 10
175.9605067607814
 20
22.74602372032094
 30
0.0
 10
175.9999469236595
 20
23.36914139378235
 30
0.0
 10
175.9999469236595
 20
24.00000000031926
 30
0.0
  0
SPLINE
  5
14F
330
2
100
AcDbEntity
  8
GEB-KONTUR-A
 48
25.0
100
AcDbSpline
210
0.0
220
0.0
230
1.0
 70
     8
 71
     3
 72
    18
 73
    14
 74
     0
 42
0.0000000001
 43
0.0000000001
 40
-0.0011182955634868
 40
-0.0011182955634868
 40
-0.0011182955634868
 40
-0.0011182955634868
 40
0.0
 40
0.0
 40
0.1216222777177361
 40
0.1216222777177361
 40
0.2445700811793019
 40
0.2445700811793019
 40
0.4438857839649937
 40
0.4438857839649937
 40
0.6341052835100295
 40
0.6341052835100295
 40
0.8204338821668757
 40
0.8204338821668757
 40
0.8204338821668757
 40
0.8204338821668757
 10
-173.9999701444483
 20
19.0000000003175
 30
0.0
 10
-174.0016371844574
 20
19.0000000003175
 30
0.0
 10
-174.0033033902931
 20
19.0000033352274
 30
0.0
 10
-174.1860893593926
 20
19.00073566742559
 30
0.0
 10
-174.3568156638314
 20
19.04094750273859
 30
0.0
 10
-174.6799148782454
 20
19.20585500603321
 30
0.0
 10
-174.830940503602
 20
19.33091144957963
 30
0.0
 10
-175.1965850308044
 20
19.77027171862246
 30
0.0
 10
-175.3889097960024
 20
20.1495138549244
 30
0.0
 10
-175.6954511475753
 20
21.07858715248023
 30
0.0
 10
-175.8095750621032
 20
21.61006109327662
 30
0.0
 10
-175.9619316092479
 20
22.76880869306072
 30
0.0
 10
-175.9999469236469
 20
23.38074423275712
 30
0.0
 10
-175.9999469236469
 20
24.00000000031898
 30
0.0
  0
ARC
  5
150
330
2
100
AcDbEntity
  8
GEB-KONTUR-A
 48
25.0
100
AcDbCircle
 10
-196.8208798574004
 20
24.00000000031452
 30
0.0
 40
5.0
100
AcDbArc
 50
180.0
 51
270.0
  0
LINE
  5
151
330
2
100
AcDbEntity
  8
GEB-KONTUR-A
 48
25.0
100
AcDbLine
 10
173.9999701444675
 20
19.00000000031777
 30
0.0
 11
166.0000298555315
 21
19.00000000031777
 31
0.0
  0
SPLINE
  5
152
330
2
100
AcDbEntity
  8
GEB-KONTUR-A
 48
25.0
100
AcDbSpline
210
0.0
220
0.0
230
1.0
 70
    28
 71
     3
 72
    15
 73
    11
 74
     0
 42
0.0000000001
 43
0.0000000001
 40
-0.1999976781115683
 40
-0.1999976781115683
 40
-0.1999976781115683
 40
-0.1999976781115683
 40
0.2704834495537007
 40
0.2704834495537007
 40
0.5409718991140183
 40
0.5409718991140183
 40
0.5409718991140183
 40
0.8114578486710279
 40
0.8114578486710279
 40
1.081937357076537
 40
1.081937357076537
 40
1.081937357076537
 40
1.081937357076537
 10
173.9999701445081
 20
19.00000000031777
 30
0.0
 41
1.0
 10
175.5682405685187
 20
19.00000000031777
 30
0.0
 41
1.0
 10
177.1365109536463
 20
19.00000000031777
 30
0.0
 41
1.0
 10
179.6064096073778
 20
19.00000000031777
 30
0.0
 41
1.0
 10
180.508038943606
 20
19.00000000031777
 30
0.0
 41
1.0
 10
181.4096659157901
 20
19.00000000031777
 30
0.0
 41
1.0
 10
182.3112845546408
 20
19.00000000031777
 30
0.0
 41
1.0
 10
183.2128435704036
 20
19.00000000031777
 30
0.0
 41
1.0
 10
185.0161856239941
 20
19.00000000031777
 30
0.0
 41
1.0
 10
185.9176031338359
 20
19.00000000031777
 30
0.0
 41
1.0
 10
186.8208798573994
 20
19.00000000031777
 30
0.0
 41
1.0
  0
SPLINE
  5
153
330
2
100
AcDbEntity
  8
GEB-KONTUR-A
 48
25.0
100
AcDbSpline
210
0.0
220
0.0
230
1.0
 70
    28
 71
     3
 72
    14
 73
    10
 74
     0
 42
0.0000000001
 43
0.0000000001
 40
1.081937357076546
 40
1.081937357076546
 40
1.081937357076546
 40
1.081937357076546
 40
1.381379899491879
 40
1.381379899491879
 40
1.764283427393197
 40
1.764283427393197
 40
2.206851770734285
 40
2.206851770734285
 40
2.651262507401031
 40
2.651262507401031
 40
2.651262507401031
 40
2.651262507401031
 10
186.8208798573994
 20
19.00000000031777
 30
0.0
 41
1.0
 10
187.8208798573995
 20
19.00000000031778
 30
0.0
 41
1.0
 10
188.8180333799755
 20
19.00000000031774
 30
0.0
 41
1.0
 10
190.9930712589215
 20
19.00000000031753
 30
0.0
 41
1.0
 10
192.1395769646333
 20
19.00000000031736
 30
0.0
 41
1.0
 10
194.2758144694912
 20
19.00000000031684
 30
0.0
 41
1.0
 10
195.2107320223703
 20
19.00000000031649
 30
0.0
 41
1.0
 10
196.4847231842971
 20
19.00000000031569
 30
0.0
 41
1.0
 10
196.8208798573997
 20
19.00000000031526
 30
0.0
 41
1.0
 10
196.8208798573997
 20
19.00000000031482
 30
0.0
 41
1.0
  0
LINE
  5
154
330
2
100
AcDbEntity
  8
GEB-KONTUR-A
 48
25.0
100
AcDbLine
 10
-186.8208798574004
 20
19.00000000031749
 30
0.0
 11
-196.8208798574004
 21
19.00000000031451
 31
0.0
  0
LINE
  5
155
330
2
100
AcDbEntity
  8
GEB-KONTUR-A
 48
25.0
100
AcDbLine
 10
-186.8208798574004
 20
19.00000000031748
 30
0.0
 11
-173.9999701444484
 21
19.00000000031749
 31
0.0
  0
LINE
  5
156
330
2
100
AcDbEntity
  8
GEB-KONTUR-A
 48
25.0
100
AcDbLine
 10
-166.0000298555524
 20
19.0000000003175
 30
0.0
 11
-173.9999701444484
 21
19.0000000003175
 31
0.0
  0
SPLINE
  5
157
330
2
100
AcDbEntity
  8
GEB-KONTUR-A
 48
25.0
100
AcDbSpline
210
0.0
220
0.0
230
1.0
 70
    12
 71
     3
 72
     8
 73
     4
 74
     0
 42
0.0000000001
 43
0.0000000001
 40
-1.0
 40
-1.0
 40
-1.0
 40
-1.0
 40
0.0
 40
0.0
 40
0.0
 40
0.0
 10
196.8208798573997
 20
19.00000000031482
 30
0.0
 41
1.0
 10
199.7498120455342
 20
19.00000000031487
 30
0.0
 41
0.8047378541243684
 10
201.8208798573996
 20
21.07106781218033
 30
0.0
 41
0.8047378541243684
 10
201.8208798573996
 20
24.00000000031483
 30
0.0
 41
1.0
  0
SPLINE
  5
158
330
2
100
AcDbEntity
  8
GEB-KONTUR-A
 48
25.0
100
AcDbSpline
210
0.0
220
0.0
230
1.0
 70
     8
 71
     3
 72
    18
 73
    14
 74
     0
 42
0.0000000001
 43
0.0000000001
 40
-0.0011182955609538
 40
-0.0011182955609538
 40
-0.0011182955609538
 40
-0.0011182955609538
 40
0.0
 40
0.0
 40
0.1216222776183164
 40
0.1216222776183164
 40
0.244570080960876
 40
0.244570080960876
 40
0.4438857835539686
 40
0.4438857835539686
 40
0.6341052829152228
 40
0.6341052829152228
 40
0.820433881392053
 40
0.820433881392053
 40
0.820433881392053
 40
0.820433881392053
 10
166.0000298555315
 20
19.00000000031777
 30
0.0
 10
165.9983628155262
 20
19.00000000031777
 30
0.0
 10
165.996696609683
 20
19.00000333522769
 30
0.0
 10
165.8139106407344
 20
19.00073566742527
 30
0.0
 10
165.6431843361744
 20
19.04094750272655
 30
0.0
 10
165.3200851217377
 20
19.20585500603333
 30
0.0
 10
165.1690594963818
 20
19.33091144957956
 30
0.0
 10
164.8034149691806
 20
19.77027171862203
 30
0.0
 10
164.611090203983
 20
20.14951385492396
 30
0.0
 10
164.3045488524107
 20
21.07858715247992
 30
0.0
 10
164.190424937883
 20
21.61006109327641
 30
0.0
 10
164.0380683907387
 20
22.76880869306069
 30
0.0
 10
164.0000530763397
 20
23.38074423275723
 30
0.0
 10
164.0000530763397
 20
24.00000000031924
 30
0.0
  0
LINE
  5
159
330
2
100
AcDbEntity
  8
GEB-KONTUR-A
 48
25.0
100
AcDbLine
 10
112.7795592375319
 20
19.00000000031771
 30
0.0
 11
166.0000298555315
 21
19.00000000031776
 31
0.0
  0
LINE
  5
15A
330
2
100
AcDbEntity
  8
GEB-KONTUR-A
 48
25.0
100
AcDbLine
 10
-166.0000298555524
 20
19.0000000003175
 30
0.0
 11
-112.7731117509413
 21
19.00000000031754
 31
0.0
  0
SPLINE
  5
15B
330
2
100
AcDbEntity
  8
GEB-KONTUR-A
 48
25.0
100
AcDbSpline
210
0.0
220
0.0
230
1.0
 70
     8
 71
     3
 72
    18
 73
    14
 74
     0
 42
0.0000000001
 43
0.0000000001
 40
-0.8191189029633802
 40
-0.8191189029633802
 40
-0.8191189029633802
 40
-0.8191189029633802
 40
-0.8180039195689717
 40
-0.8180039195689717
 40
-0.6967418629461584
 40
-0.6967418629461584
 40
-0.5741582065163647
 40
-0.5741582065163647
 40
-0.3754328373479342
 40
-0.3754328373479342
 40
-0.1857767302685772
 40
-0.1857767302685772
 40
0.0
 40
0.0
 40
0.0
 40
0.0
 10
-166.0000298555524
 20
19.00000000031751
 30
0.0
 10
-165.9983628155414
 20
19.00000000031751
 30
0.0
 10
-165.9966966097095
 20
19.0000033352274
 30
0.0
 10
-165.8139106405462
 20
19.00073566742585
 30
0.0
 10
-165.643184336159
 20
19.04094750274381
 30
0.0
 10
-165.3200851217552
 20
19.20585500603325
 30
0.0
 10
-165.1690594963987
 20
19.33091144957968
 30
0.0
 10
-164.8034149691964
 20
19.77027171862249
 30
0.0
 10
-164.6110902039983
 20
20.14951385492441
 30
0.0
 10
-164.3045488524253
 20
21.07858715248024
 30
0.0
 10
-164.1904249378974
 20
21.61006109327663
 30
0.0
 10
-164.0380683907529
 20
22.76880869306062
 30
0.0
 10
-164.0000530763539
 20
23.38074423275707
 30
0.0
 10
-164.0000530763539
 20
24.00000000031899
 30
0.0
  0
LINE
  5
15C
330
2
100
AcDbEntity
  8
GEB-KONTUR-A
 48
25.0
100
AcDbLine
 10
-66.5000000000004
 20
25.00000000031903
 30
0.0
 11
-66.50000000000045
 21
71.00000000031906
 31
0.0
  0
LINE
  5
15D
330
2
100
AcDbEntity
  8
GEB-KONTUR-A
 48
25.0
100
AcDbLine
 10
-35.5000000000004
 20
25.00000000031908
 30
0.0
 11
-66.5000000000004
 21
25.00000000031903
 31
0.0
  0
LINE
  5
15E
330
2
100
AcDbEntity
  8
GEB-KONTUR-A
 48
25.0
100
AcDbLine
 10
-23.50000000000045
 20
60.0000000003191
 30
0.0
 11
-23.50000000000045
 21
37.00000000031911
 31
0.0
  0
LINE
  5
15F
330
2
100
AcDbEntity
  8
GEB-KONTUR-A
 48
25.0
100
AcDbLine
 10
-23.50000000000045
 20
37.00000000031911
 30
0.0
 11
-35.5000000000004
 21
25.00000000031909
 31
0.0
  0
CIRCLE
  5
160
330
2
100
AcDbEntity
  8
GEB-KONTUR-A
 48
25.0
100
AcDbCircle
 10
-45.00000000000045
 20
47.0000000003182
 30
0.0
 40
17.85
  0
LINE
  5
161
330
2
100
AcDbEntity
  8
GEB-KONTUR-A
 48
25.0
100
AcDbLine
 10
112.7795592375319
 20
19.00000000031772
 30
0.0
 11
104.2053906977124
 21
19.00000000031865
 31
0.0
  0
LINE
  5
162
330
2
100
AcDbEntity
  8
GEB-KONTUR-A
 48
25.0
100
AcDbLine
 10
116.4526936204996
 20
19.00000000031519
 30
0.0
 11
116.4526936204996
 21
14.00000000031519
 31
0.0
  0
LINE
  5
163
330
2
100
AcDbEntity
  8
GEB-KONTUR-A
 48
25.0
100
AcDbLine
 10
-104.7913237622788
 20
19.00000000031848
 30
0.0
 11
104.2053906977124
 21
19.00000000031864
 31
0.0
  0
LINE
  5
164
330
2
100
AcDbEntity
  8
GEB-KONTUR-A
 48
25.0
100
AcDbLine
 10
104.2053906977124
 20
19.00000000031864
 30
0.0
 11
104.2053906977124
 21
14.00000000031865
 31
0.0
  0
LINE
  5
165
330
2
100
AcDbEntity
  8
GEB-KONTUR-A
 48
25.0
100
AcDbLine
 10
-104.7913237622788
 20
19.00000000031849
 30
0.0
 11
-112.7731117509413
 21
19.00000000031755
 31
0.0
  0
LINE
  5
166
330
2
100
AcDbEntity
  8
GEB-KONTUR-A
 48
25.0
100
AcDbLine
 10
-116.452693596545
 20
19.00000000031502
 30
0.0
 11
-116.452693596545
 21
14.00000000031502
 31
0.0
  0
ARC
  5
167
330
2
100
AcDbEntity
  8
GEB-KONTUR-A
 48
25.0
100
AcDbCircle
 10
-114.452693596545
 20
14.00000000031502
 30
0.0
 40
2.000000000000001
100
AcDbArc
 50
180.0
 51
270.0
  0
SPLINE
  5
168
330
2
100
AcDbEntity
  8
GEB-KONTUR-A
 48
25.0
100
AcDbSpline
210
0.0
220
0.0
230
1.0
 70
     8
 71
     3
 72
    16
 73
    12
 74
     0
 42
0.0000000001
 43
0.0000000001
 40
-0.001319557218634
 40
-0.001319557218634
 40
-0.001319557218634
 40
-0.001319557218634
 40
0.0
 40
0.0
 40
0.0795162211981987
 40
0.0795162211981987
 40
0.1576606441240117
 40
0.1576606441240117
 40
0.2357805178429877
 40
0.2357805178429877
 40
0.3138885913626224
 40
0.3138885913626224
 40
0.3138885913626224
 40
0.3138885913626224
 10
104.2567072170342
 20
12.00000000031806
 30
0.0
 10
104.2565888391267
 20
12.00000000031806
 30
0.0
 10
104.2564705018894
 20
12.00001450006851
 30
0.0
 10
104.2492237936099
 20
12.00179098983846
 30
0.0
 10
104.2423255932135
 20
12.05617222837024
 30
0.0
 10
104.2298100415876
 20
12.26209992882243
 30
0.0
 10
104.2242892472029
 20
12.40998775419545
 30
0.0
 10
104.2150956771942
 20
12.780729059199
 30
0.0
 10
104.2115077011619
 20
13.00001446131219
 30
0.0
 10
104.2066327721461
 20
13.48178070727292
 30
0.0
 10
104.2053906977124
 20
13.73964368145466
 30
0.0
 10
104.2053906977124
 20
14.00000000031865
 30
0.0
  0
ARC
  5
169
330
2
100
AcDbEntity
  8
GEB-KONTUR-A
 48
25.0
100
AcDbCircle
 10
114.4526936204996
 20
14.00000000031522
 30
0.0
 40
2.000000000000028
100
AcDbArc
 50
270.0
 51
0.0
  0
LINE
  5
16A
330
2
100
AcDbEntity
  8
GEB-KONTUR-A
 48
25.0
100
AcDbLine
 10
-104.7913237622789
 20
12.0000000003179
 30
0.0
 11
-114.452693596545
 21
12.00000000031502
 31
0.0
  0
LINE
  5
16B
330
2
100
AcDbEntity
  8
GEB-KONTUR-A
 48
25.0
100
AcDbLine
 10
-104.7913237622788
 20
12.00000000031789
 30
0.0
 11
104.2567072170342
 21
12.00000000031805
 31
0.0
  0
LINE
  5
16C
330
2
100
AcDbEntity
  8
GEB-KONTUR-A
 48
25.0
100
AcDbLine
 10
114.4526936204996
 20
12.0000000003152
 30
0.0
 11
104.2567072170342
 21
12.00000000031805
 31
0.0
  0
LINE
  5
16D
330
2
100
AcDbEntity
  8
GEB-KONTUR-A
 48
25.0
100
AcDbLine
 10
-202.0000000000002
 20
0.0000000001259366
 30
0.0
 11
-107.4063469186403
 21
0.0000000001259224
 31
0.0
  0
LINE
  5
16E
330
2
100
AcDbEntity
  8
GEB-KONTUR-A
 48
25.0
100
AcDbLine
 10
107.4063469186416
 20
0.0000000001259153
 30
0.0
 11
201.9999999999998
 21
0.0000000001259082
 31
0.0
  0
LINE
  5
16F
330
2
100
AcDbEntity
  8
GEB-KONTUR-A
 48
25.0
100
AcDbLine
 10
-206.0000000000004
 20
6.000000000326934
 30
0.0
 11
-206.0000000000004
 21
34.00000000032694
 31
0.0
  0
LINE
  5
170
330
2
100
AcDbEntity
  8
GEB-KONTUR-A
 48
25.0
100
AcDbLine
 10
-210.0000000000004
 20
26.50000000032695
 30
0.0
 11
-210.0000000000004
 21
13.50000000032694
 31
0.0
  0
LINE
  5
171
330
2
100
AcDbEntity
  8
GEB-KONTUR-A
 48
25.0
100
AcDbLine
 10
-206.0000000000004
 20
34.00000000032694
 30
0.0
 11
-210.0000000000004
 21
34.00000000032694
 31
0.0
  0
LINE
  5
172
330
2
100
AcDbEntity
  8
GEB-KONTUR-A
 48
25.0
100
AcDbLine
 10
-206.0000000000004
 20
6.000000000326934
 30
0.0
 11
-210.0000000000004
 21
6.000000000326934
 31
0.0
  0
LINE
  5
173
330
2
100
AcDbEntity
  8
GEB-KONTUR-A
 48
25.0
100
AcDbLine
 10
-210.0000000000004
 20
13.50000000033138
 30
0.0
 11
-212.0000000000004
 21
13.50000000033138
 31
0.0
  0
LINE
  5
174
330
2
100
AcDbEntity
  8
GEB-KONTUR-A
 48
25.0
100
AcDbLine
 10
-212.0000000000004
 20
26.50000000033139
 30
0.0
 11
-210.0000000000004
 21
26.50000000033139
 31
0.0
  0
LINE
  5
175
330
2
100
AcDbEntity
  8
GEB-KONTUR-A
 48
25.0
100
AcDbLine
 10
-213.5000000000005
 20
2.000000000331382
 30
0.0
 11
-246.5000000000003
 21
2.000000000331382
 31
0.0
  0
LINE
  5
176
330
2
100
AcDbEntity
  8
GEB-KONTUR-A
 48
25.0
100
AcDbLine
 10
-212.0000000000004
 20
13.50000000033138
 30
0.0
 11
-212.0000000000004
 21
3.500000000331375
 31
0.0
  0
LINE
  5
177
330
2
100
AcDbEntity
  8
GEB-KONTUR-A
 48
25.0
100
AcDbLine
 10
-210.0000000000004
 20
13.50000000033138
 30
0.0
 11
-210.0000000000004
 21
3.500000000331375
 31
0.0
  0
LINE
  5
178
330
2
100
AcDbEntity
  8
GEB-KONTUR-A
 48
25.0
100
AcDbLine
 10
-213.5000000000003
 20
0.0000000003313829
 30
0.0
 11
-246.5000000000003
 21
0.0000000003313829
 31
0.0
  0
ARC
  5
179
330
2
100
AcDbEntity
  8
GEB-KONTUR-A
 48
25.0
100
AcDbCircle
 10
-213.5000000000005
 20
3.500000000331375
 30
0.0
 40
1.499999999999996
100
AcDbArc
 50
270.0
 51
0.0
  0
ARC
  5
17A
330
2
100
AcDbEntity
  8
GEB-KONTUR-A
 48
25.0
100
AcDbCircle
 10
-246.5000000000005
 20
3.500000000331375
 30
0.0
 40
1.500000000000003
100
AcDbArc
 50
180.0
 51
270.0
  0
LINE
  5
17B
330
2
100
AcDbEntity
  8
GEB-KONTUR-A
 48
25.0
100
AcDbLine
 10
-248.0000000000004
 20
3.500000000331375
 30
0.0
 11
-248.0000000000004
 21
8.200000000331385
 31
0.0
  0
ARC
  5
17C
330
2
100
AcDbEntity
  8
GEB-KONTUR-A
 48
25.0
100
AcDbCircle
 10
-213.5000000000005
 20
3.500000000331382
 30
0.0
 40
3.500000000000014
100
AcDbArc
 50
270.0
 51
0.0
  0
ARC
  5
17D
330
2
100
AcDbEntity
  8
GEB-KONTUR-A
 48
25.0
100
AcDbCircle
 10
-246.5000000000005
 20
3.500000000331382
 30
0.0
 40
3.500000000000005
100
AcDbArc
 50
180.0
 51
270.0
  0
LINE
  5
17E
330
2
100
AcDbEntity
  8
GEB-KONTUR-A
 48
25.0
100
AcDbLine
 10
-250.0000000000004
 20
3.500000000331375
 30
0.0
 11
-250.0000000000004
 21
8.200000000331385
 31
0.0
  0
LINE
  5
17F
330
2
100
AcDbEntity
  8
GEB-KONTUR-A
 48
25.0
100
AcDbLine
 10
-250.0000000000004
 20
23.80000000033138
 30
0.0
 11
-250.0000000000004
 21
36.50000000033138
 31
0.0
  0
ARC
  5
180
330
2
100
AcDbEntity
  8
GEB-KONTUR-A
 48
25.0
100
AcDbCircle
 10
-246.5000000000005
 20
36.50000000033138
 30
0.0
 40
3.500000000000005
100
AcDbArc
 50
90.0
 51
180.0
  0
LINE
  5
181
330
2
100
AcDbEntity
  8
GEB-KONTUR-A
 48
25.0
100
AcDbLine
 10
-246.5000000000003
 20
40.00000000033138
 30
0.0
 11
-213.5000000000005
 21
40.00000000033137
 31
0.0
  0
ARC
  5
182
330
2
100
AcDbEntity
  8
GEB-KONTUR-A
 48
25.0
100
AcDbCircle
 10
-213.5000000000005
 20
36.50000000033138
 30
0.0
 40
3.499999999999993
100
AcDbArc
 50
0.0
 51
90.0
  0
LINE
  5
183
330
2
100
AcDbEntity
  8
GEB-KONTUR-A
 48
25.0
100
AcDbLine
 10
-210.0000000000004
 20
36.50000000033138
 30
0.0
 11
-210.0000000000004
 21
26.50000000033139
 31
0.0
  0
LINE
  5
184
330
2
100
AcDbEntity
  8
GEB-KONTUR-A
 48
25.0
100
AcDbLine
 10
-212.0000000000004
 20
36.50000000033138
 30
0.0
 11
-212.0000000000004
 21
26.50000000033139
 31
0.0
  0
ARC
  5
185
330
2
100
AcDbEntity
  8
GEB-KONTUR-A
 48
25.0
100
AcDbCircle
 10
-213.5000000000005
 20
36.50000000033138
 30
0.0
 40
1.500000000000003
100
AcDbArc
 50
0.0
 51
90.0
  0
LINE
  5
186
330
2
100
AcDbEntity
  8
GEB-KONTUR-A
 48
25.0
100
AcDbLine
 10
-246.5000000000003
 20
38.00000000033138
 30
0.0
 11
-213.5000000000005
 21
38.00000000033138
 31
0.0
  0
ARC
  5
187
330
2
100
AcDbEntity
  8
GEB-KONTUR-A
 48
25.0
100
AcDbCircle
 10
-246.5000000000005
 20
36.50000000033138
 30
0.0
 40
1.499999999999988
100
AcDbArc
 50
90.0
 51
180.0
  0
LINE
  5
188
330
2
100
AcDbEntity
  8
GEB-KONTUR-A
 48
25.0
100
AcDbLine
 10
-248.0000000000004
 20
23.80000000033138
 30
0.0
 11
-248.0000000000004
 21
36.50000000033138
 31
0.0
  0
LINE
  5
189
330
2
100
AcDbEntity
  8
GEB-KONTUR-A
 48
25.0
100
AcDbLine
 10
-250.0000000000004
 20
23.80000000033138
 30
0.0
 11
-248.0000000000004
 21
23.80000000033138
 31
0.0
  0
LINE
  5
18A
330
2
100
AcDbEntity
  8
GEB-KONTUR-A
 48
25.0
100
AcDbLine
 10
-248.0000000000004
 20
8.200000000331385
 30
0.0
 11
-250.0000000000004
 21
8.200000000331385
 31
0.0
  0
LINE
  5
18B
330
2
100
AcDbEntity
  8
GEB-KONTUR-A
 48
25.0
100
AcDbLine
 10
-250.0000000000004
 20
8.200000000321594
 30
0.0
 11
-250.0000000000004
 21
23.80000000032159
 31
0.0
  0
LINE
  5
18C
330
2
100
AcDbEntity
  8
GEB-KONTUR-A
 48
25.0
100
AcDbLine
 10
-248.0000000000004
 20
23.80000000032159
 30
0.0
 11
-248.0000000000004
 21
8.200000000321594
 31
0.0
  0
LINE
  5
18D
330
2
100
AcDbEntity
  8
GEB-KONTUR-A
 48
25.0
100
AcDbLine
 10
-212.5
 20
27.89755734069244
 30
0.0
 11
-212.5
 21
33.50000000014843
 31
0.0
  0
LINE
  5
18E
330
2
100
AcDbEntity
  8
GEB-KONTUR-A
 48
25.0
100
AcDbLine
 10
-214.5
 20
27.89755734069244
 30
0.0
 11
-212.5
 21
27.89755734069244
 31
0.0
  0
LINE
  5
18F
330
2
100
AcDbEntity
  8
GEB-KONTUR-A
 48
25.0
100
AcDbLine
 10
-214.5
 20
33.50000000014844
 30
0.0
 11
-214.5
 21
27.89755734069244
 31
0.0
  0
ARC
  5
190
330
2
100
AcDbEntity
  8
GEB-KONTUR-A
 48
25.0
100
AcDbCircle
 10
-216.5
 20
33.50000000014843
 30
0.0
 40
1.999999999999997
100
AcDbArc
 50
0.0
 51
90.0
  0
LINE
  5
191
330
2
100
AcDbEntity
  8
GEB-KONTUR-A
 48
25.0
100
AcDbLine
 10
-243.5
 20
35.50000000014849
 30
0.0
 11
-216.5
 21
35.50000000014843
 31
0.0
  0
ARC
  5
192
330
2
100
AcDbEntity
  8
GEB-KONTUR-A
 48
25.0
100
AcDbCircle
 10
-243.5
 20
33.50000000014849
 30
0.0
 40
1.999999999999991
100
AcDbArc
 50
90.0
 51
180.0
  0
LINE
  5
193
330
2
100
AcDbEntity
  8
GEB-KONTUR-A
 48
25.0
100
AcDbLine
 10
-245.5
 20
6.500000000148503
 30
0.0
 11
-245.5
 21
33.5000000001485
 31
0.0
  0
ARC
  5
194
330
2
100
AcDbEntity
  8
GEB-KONTUR-A
 48
25.0
100
AcDbCircle
 10
-243.5
 20
6.500000000148503
 30
0.0
 40
2.0
100
AcDbArc
 50
180.0
 51
270.0
  0
LINE
  5
195
330
2
100
AcDbEntity
  8
GEB-KONTUR-A
 48
25.0
100
AcDbLine
 10
-216.5
 20
4.50000000014846
 30
0.0
 11
-243.5
 21
4.500000000148503
 31
0.0
  0
ARC
  5
196
330
2
100
AcDbEntity
  8
GEB-KONTUR-A
 48
25.0
100
AcDbCircle
 10
-216.5
 20
6.500000000148453
 30
0.0
 40
1.999999999999993
100
AcDbArc
 50
270.0
 51
0.0
  0
LINE
  5
197
330
2
100
AcDbEntity
  8
GEB-KONTUR-A
 48
25.0
100
AcDbLine
 10
-214.5
 20
14.89755734069245
 30
0.0
 11
-214.5
 21
6.500000000148453
 31
0.0
  0
LINE
  5
198
330
2
100
AcDbEntity
  8
GEB-KONTUR-A
 48
25.0
100
AcDbLine
 10
-212.5
 20
14.89755734069244
 30
0.0
 11
-214.5
 21
14.89755734069245
 31
0.0
  0
LINE
  5
199
330
2
100
AcDbEntity
  8
GEB-KONTUR-A
 48
25.0
100
AcDbLine
 10
-212.5
 20
6.500000000148446
 30
0.0
 11
-212.5
 21
14.89755734069244
 31
0.0
  0
ARC
  5
19A
330
2
100
AcDbEntity
  8
GEB-KONTUR-A
 48
25.0
100
AcDbCircle
 10
-216.5
 20
6.500000000148453
 30
0.0
 40
4.000000000000002
100
AcDbArc
 50
270.0
 51
0.0
  0
LINE
  5
19B
330
2
100
AcDbEntity
  8
GEB-KONTUR-A
 48
25.0
100
AcDbLine
 10
-243.5
 20
2.500000000148503
 30
0.0
 11
-216.5
 21
2.50000000014846
 31
0.0
  0
ARC
  5
19C
330
2
100
AcDbEntity
  8
GEB-KONTUR-A
 48
25.0
100
AcDbCircle
 10
-243.5
 20
6.500000000148503
 30
0.0
 40
4.000000000000008
100
AcDbArc
 50
180.0
 51
270.0
  0
LINE
  5
19D
330
2
100
AcDbEntity
  8
GEB-KONTUR-A
 48
25.0
100
AcDbLine
 10
-247.5
 20
33.5000000001485
 30
0.0
 11
-247.5
 21
6.500000000148517
 31
0.0
  0
ARC
  5
19E
330
2
100
AcDbEntity
  8
GEB-KONTUR-A
 48
25.0
100
AcDbCircle
 10
-243.5
 20
33.50000000014848
 30
0.0
 40
3.999999999999998
100
AcDbArc
 50
90.0
 51
180.0
  0
LINE
  5
19F
330
2
100
AcDbEntity
  8
GEB-KONTUR-A
 48
25.0
100
AcDbLine
 10
-216.5
 20
37.50000000014843
 30
0.0
 11
-243.5
 21
37.50000000014849
 31
0.0
  0
ARC
  5
1A0
330
2
100
AcDbEntity
  8
GEB-KONTUR-A
 48
25.0
100
AcDbCircle
 10
-216.5
 20
33.50000000014843
 30
0.0
 40
3.999999999999998
100
AcDbArc
 50
0.0
 51
90.0
  0
LINE
  5
1A1
330
2
100
AcDbEntity
  8
GEB-KONTUR-A
 48
25.0
100
AcDbLine
 10
-249.25
 20
38.66506350946329
 30
0.0
 11
-249.25
 21
46.00000000000217
 31
0.0
  0
LINE
  5
1A2
330
2
100
AcDbEntity
  8
GEB-KONTUR-A
 48
25.0
100
AcDbLine
 10
-210.0000000000001
 20
0.5000000000022454
 30
0.0
 11
-211.6972243622682
 21
0.5000000000022454
 31
0.0
  0
LINE
  5
1A3
330
2
100
AcDbEntity
  8
GEB-KONTUR-A
 48
25.0
100
AcDbLine
 10
-246.75
 20
48.50000000000216
 30
0.0
 11
-218.0
 21
48.50000000000215
 31
0.0
  0
ARC
  5
1A4
330
2
100
AcDbEntity
  8
GEB-KONTUR-A
 48
25.0
100
AcDbCircle
 10
-246.75
 20
46.00000000000217
 30
0.0
 40
2.499999999999994
100
AcDbArc
 50
90.0
 51
180.0
  0
LINE
  5
1A5
330
2
100
AcDbEntity
  8
GEB-KONTUR-A
 48
25.0
100
AcDbLine
 10
-240.25
 20
35.00000000000575
 30
0.0
 11
-240.25
 21
26.50000000000578
 31
0.0
  0
LINE
  5
1A6
330
2
100
AcDbEntity
  8
GEB-KONTUR-A
 48
25.0
100
AcDbLine
 10
-242.75
 20
35.00000000000575
 30
0.0
 11
-240.25
 21
35.00000000000575
 31
0.0
  0
ARC
  5
1A7
330
2
100
AcDbEntity
  8
GEB-KONTUR-A
 48
25.0
100
AcDbCircle
 10
-242.75
 20
32.50000000000575
 30
0.0
 40
2.499999999999994
100
AcDbArc
 50
90.0
 51
180.0
  0
LINE
  5
1A8
330
2
100
AcDbEntity
  8
GEB-KONTUR-A
 48
25.0
100
AcDbLine
 10
-245.25
 20
16.50000000000579
 30
0.0
 11
-245.25
 21
32.50000000000575
 31
0.0
  0
ARC
  5
1A9
330
2
100
AcDbEntity
  8
GEB-KONTUR-A
 48
25.0
100
AcDbCircle
 10
-242.75
 20
16.50000000000579
 30
0.0
 40
2.499999999999996
100
AcDbArc
 50
180.0
 51
270.0
  0
LINE
  5
1AA
330
2
100
AcDbEntity
  8
GEB-KONTUR-A
 48
25.0
100
AcDbLine
 10
-240.25
 20
14.0000000000058
 30
0.0
 11
-242.75
 21
14.0000000000058
 31
0.0
  0
LINE
  5
1AB
330
2
100
AcDbEntity
  8
GEB-KONTUR-A
 48
25.0
100
AcDbLine
 10
-240.25
 20
22.50000000000579
 30
0.0
 11
-240.25
 21
14.0000000000058
 31
0.0
  0
LINE
  5
1AC
330
2
100
AcDbEntity
  8
GEB-KONTUR-A
 48
25.0
100
AcDbLine
 10
-219.7500000000001
 20
22.50000000000577
 30
0.0
 11
-240.25
 21
22.50000000000578
 31
0.0
  0
LINE
  5
1AD
330
2
100
AcDbEntity
  8
GEB-KONTUR-A
 48
25.0
100
AcDbLine
 10
-240.25
 20
26.50000000000578
 30
0.0
 11
-219.7500000000001
 21
26.50000000000576
 31
0.0
  0
LINE
  5
1AE
330
2
100
AcDbEntity
  8
GEB-KONTUR-A
 48
25.0
100
AcDbLine
 10
-219.7500000000001
 20
26.50000000000576
 30
0.0
 11
-219.7500000000001
 21
35.00000000000574
 31
0.0
  0
LINE
  5
1AF
330
2
100
AcDbEntity
  8
GEB-KONTUR-A
 48
25.0
100
AcDbLine
 10
-219.7500000000001
 20
35.00000000000574
 30
0.0
 11
-217.2500000000001
 21
35.00000000000574
 31
0.0
  0
ARC
  5
1B0
330
2
100
AcDbEntity
  8
GEB-KONTUR-A
 48
25.0
100
AcDbCircle
 10
-217.2500000000001
 20
32.50000000000575
 30
0.0
 40
2.499999999999994
100
AcDbArc
 50
0.0
 51
90.0
  0
LINE
  5
1B1
330
2
100
AcDbEntity
  8
GEB-KONTUR-A
 48
25.0
100
AcDbLine
 10
-214.7500000000001
 20
32.50000000000574
 30
0.0
 11
-214.7500000000001
 21
16.50000000000577
 31
0.0
  0
ARC
  5
1B2
330
2
100
AcDbEntity
  8
GEB-KONTUR-A
 48
25.0
100
AcDbCircle
 10
-217.2500000000001
 20
16.50000000000577
 30
0.0
 40
2.499999999999996
100
AcDbArc
 50
270.0
 51
0.0
  0
LINE
  5
1B3
330
2
100
AcDbEntity
  8
GEB-KONTUR-A
 48
25.0
100
AcDbLine
 10
-217.2500000000001
 20
14.00000000000579
 30
0.0
 11
-219.7500000000001
 21
14.00000000000579
 31
0.0
  0
LINE
  5
1B4
330
2
100
AcDbEntity
  8
GEB-KONTUR-A
 48
25.0
100
AcDbLine
 10
-219.7500000000001
 20
14.00000000000579
 30
0.0
 11
-219.7500000000001
 21
22.50000000000577
 31
0.0
  0
ARC
  5
1B5
330
2
100
AcDbEntity
  8
GEB-KONTUR-A
 48
25.0
100
AcDbCircle
 10
-217.2500000000001
 20
42.00000000000573
 30
0.0
 40
2.499999999999996
100
AcDbArc
 50
90.0
 51
233.130102354151
  0
ARC
  5
1B6
330
2
100
AcDbEntity
  8
GEB-KONTUR-A
 48
25.0
100
AcDbCircle
 10
-242.75
 20
42.00000000000573
 30
0.0
 40
2.499999999999996
100
AcDbArc
 50
306.8698976458459
 51
233.1301023541544
  0
CIRCLE
  5
1B7
330
2
100
AcDbEntity
  8
GEB-KONTUR-A
 48
25.0
100
AcDbCircle
 10
-217.2500000000001
 20
7.000000000005798
 30
0.0
 40
2.499999999999994
  0
CIRCLE
  5
1B8
330
2
100
AcDbEntity
  8
GEB-KONTUR-A
 48
25.0
100
AcDbCircle
 10
-242.75
 20
7.000000000005812
 30
0.0
 40
2.499999999999994
  0
TEXT
  5
1B9
330
2
100
AcDbEntity
  8
GEB-TEXT
100
AcDbText
 10
-62.87517053206048
 20
-86.4999999997036
 30
0.0
 40
3.5
  1
DF-B WC UP100 H112 90/110 TRA VB DE
 72
     1
 11
-16.00000000000045
 21
-86.4999999997036
 31
0.0
100
AcDbText
  0
TEXT
  5
1BB
330
2
100
AcDbEntity
  8
GEB-TEXT
100
AcDbText
 10
-32.43997271487085
 20
-80.99999999970359
 30
0.0
 40
3.5
  1
Geberit DuoFix
 72
     1
 11
-16.00000000000045
 21
-80.99999999970359
 31
0.0
100
AcDbText
  0
TEXT
  5
1BC
330
2
100
AcDbEntity
  8
GEB-ART-NR
100
AcDbText
 10
-40.17544479964604
 20
-92.84278125398381
 30
0.0
 40
3.5
  1
GEB-ART-NR 458.103
 72
     1
 11
-15.44744343538957
 21
-92.84278125398381
 31
0.0
100
AcDbText
  0
ENDSEC
  0
SECTION
  2
OBJECTS
  0
DICTIONARY
  5
9
330
0
100
AcDbDictionary
281
     1
  3
ACAD_2007HEADERVARS_RT
350
1EA
  3
ACAD_COLOR
350
45
  3
ACAD_GROUP
350
32
  3
ACAD_LAYOUT
350
16
  3
ACAD_MATERIAL
350
B
  3
ACAD_MLEADERSTYLE
350
48
  3
ACAD_MLINESTYLE
350
33
  3
ACAD_PLOTSETTINGS
350
34
  3
ACAD_PLOTSTYLENAME
350
8
  3
ACAD_SCALELIST
350
46
  3
ACAD_TABLESTYLE
350
47
  3
ACAD_VISUALSTYLE
350
2B
  3
ACDB_RECOMPOSE_DATA
350
1E9
  3
AcDbVariableDictionary
350
1C0
  0
DICTIONARY
  5
2D
330
28
100
AcDbDictionary
280
     1
281
     1
  0
DICTIONARY
  5
1C
330
1B
100
AcDbDictionary
280
     1
281
     1
  3
ACAD_LAYERFILTERS
360
1D
  3
ACLYDICTIONARY
360
1E
  0
DICTIONARY
  5
3
330
2
100
AcDbDictionary
280
     1
281
     1
  3
ACAD_SORTENTS
360
1BE
  0
DICTIONARY
  5
1EA
102
{ACAD_REACTORS
330
9
102
}
330
9
100
AcDbDictionary
281
     1
  3
DIMARCSYM
350
1EB
  3
DIMLTEX1
350
1ED
  3
DIMLTEX2
350
1EE
  3
DIMLTYPE
350
1EC
  0
DICTIONARY
  5
45
102
{ACAD_REACTORS
330
9
102
}
330
9
100
AcDbDictionary
281
     1
  0
DICTIONARY
  5
32
102
{ACAD_REACTORS
330
9
102
}
330
9
100
AcDbDictionary
281
     1
  0
DICTIONARY
  5
16
102
{ACAD_REACTORS
330
9
102
}
330
9
100
AcDbDictionary
281
     1
  3
Layout1
350
1A
  3
Model
350
15
  0
DICTIONARY
  5
B
102
{ACAD_REACTORS
330
9
102
}
330
9
100
AcDbDictionary
281
     1
  3
ByBlock
350
3D
  3
ByLayer
350
35
  3
Global
350
A
  0
DICTIONARY
  5
48
102
{ACAD_REACTORS
330
9
102
}
330
9
100
AcDbDictionary
281
     1
  3
Standard
350
1DE
  0
DICTIONARY
  5
33
102
{ACAD_REACTORS
330
9
102
}
330
9
100
AcDbDictionary
281
     1
  3
Standard
350
49
  0
DICTIONARY
  5
34
102
{ACAD_REACTORS
330
9
102
}
330
9
100
AcDbDictionary
281
     1
  0
ACDBDICTIONARYWDFLT
  5
8
102
{ACAD_REACTORS
330
9
102
}
330
9
100
AcDbDictionary
281
     1
  3
Normal
350
7
100
AcDbDictionaryWithDefault
340
7
  0
DICTIONARY
  5
46
102
{ACAD_REACTORS
330
9
102
}
330
9
100
AcDbDictionary
281
     1
  3
A0
350
4E
  3
A1
350
4F
  3
A2
350
50
  3
A3
350
51
  3
A4
350
52
  3
A5
350
53
  3
A6
350
54
  3
A7
350
55
  3
A8
350
56
  3
A9
350
57
  3
B0
350
58
  3
B1
350
59
  3
B2
350
5A
  3
B3
350
5B
  3
B4
350
5C
  3
B5
350
5D
  3
B6
350
5E
  3
B7
350
5F
  3
B8
350
60
  3
B9
350
61
  3
C0
350
62
  3
C1
350
63
  3
C2
350
64
  3
C3
350
65
  3
C4
350
66
  3
C5
350
67
  3
C6
350
68
  3
C7
350
69
  3
C8
350
6A
  3
C9
350
6B
  3
D0
350
6C
  3
D1
350
6D
  3
D2
350
6E
  0
DICTIONARY
  5
47
102
{ACAD_REACTORS
330
9
102
}
330
9
100
AcDbDictionary
281
     1
  3
Standard
350
4A
  0
DICTIONARY
  5
2B
102
{ACAD_REACTORS
330
9
102
}
330
9
100
AcDbDictionary
281
     1
  3
2dWireframe
350
2A
  3
Basic
350
1CD
  3
Brighten
350
1D1
  3
ColorChange
350
1D5
  3
Conceptual
350
1CF
  3
Dim
350
1D0
  3
EdgeColorOff
350
1DD
  3
Facepattern
350
1D4
  3
Flat
350
1C9
  3
FlatWithEdges
350
1CA
  3
Gouraud
350
1CB
  3
GouraudWithEdges
350
1CC
  3
Hidden
350
1CE
  3
JitterOff
350
1DB
  3
Linepattern
350
1D3
  3
OverhangOff
350
1DC
  3
Realistic
350
4C
  3
Shaded
350
1DA
  3
Shaded with edges
350
1D9
  3
Shades of Gray
350
1D6
  3
Sketchy
350
1D7
  3
Thicken
350
1D2
  3
Wireframe
350
4D
  3
X-Ray
350
1D8
  0
XRECORD
  5
1E9
102
{ACAD_REACTORS
330
9
102
}
330
9
100
AcDbXrecord
280
     1
 90
        1
330
4A
  0
DICTIONARY
  5
1C0
102
{ACAD_REACTORS
330
9
102
}
330
9
100
AcDbDictionary
281
     1
  3
CANNOSCALE
350
1C4
  3
CMLEADERSTYLE
350
1C2
  3
CTABLESTYLE
350
1C1
  3
DIMASSOC
350
1E5
  3
HIDETEXT
350
1E4
  3
INDEXCTL
350
1E3
  3
LAYEREVAL
350
1C6
  3
LAYERNOTIFY
350
1C7
  3
LIGHTINGUNITS
350
1C5
  3
MSLTSCALE
350
1C3
  3
SOLIDHIST
350
1E6
  3
SORTENTS
350
1E2
  3
XCLIPFRAME
350
1E7
  0
DICTIONARY
  5
1D
102
{ACAD_REACTORS
330
1C
102
}
330
1C
100
AcDbDictionary
281
     1
  0
DICTIONARY
  5
1E
102
{ACAD_REACTORS
330
1C
102
}
330
1C
100
AcDbDictionary
281
     1
1001
ACAD
1000
<All
  0
SORTENTSTABLE
  5
1BE
102
{ACAD_REACTORS
330
3
102
}
330
3
100
AcDbSortentsTable
330
2
331
B6
  5
179
331
B2
  5
17D
331
12C
  5
103
331
1A4
  5
8B
331
AE
  5
181
331
167
  5
C8
331
128
  5
107
331
ED
  5
142
331
1A0
  5
8F
331
E9
  5
146
331
163
  5
CC
331
124
  5
10B
331
AA
  5
185
331
19C
  5
93
331
120
  5
10F
331
198
  5
97
331
E5
  5
14A
331
A6
  5
189
331
6F
  5
1B8
331
15F
  5
D0
331
E1
  5
14E
331
A2
  5
18D
331
11C
  5
113
331
15B
  5
D4
331
194
  5
9B
331
9E
  5
191
331
157
  5
D8
331
118
  5
117
331
DD
  5
152
331
190
  5
9F
331
D9
  5
156
331
153
  5
DC
331
114
  5
11B
331
9A
  5
195
331
18C
  5
A3
331
110
  5
11F
331
188
  5
A7
331
D5
  5
15A
331
14F
  5
E0
331
96
  5
199
331
D1
  5
15E
331
92
  5
19D
331
10C
  5
123
331
14B
  5
E4
331
184
  5
AB
331
8E
  5
1A1
331
147
  5
E8
331
108
  5
127
331
CD
  5
162
331
180
  5
AF
331
8A
  5
1A5
331
143
  5
EC
331
104
  5
12B
331
C9
  5
166
331
17C
  5
B3
331
100
  5
12F
331
178
  5
B7
331
C5
  5
16A
331
13F
  5
F0
331
86
  5
1A9
331
1B7
  5
76
331
C1
  5
16E
331
82
  5
1AD
331
13B
  5
F4
331
FC
  5
133
331
1B3
  5
7B
331
174
  5
BB
331
BD
  5
172
331
7E
  5
1B1
331
137
  5
F8
331
F8
  5
137
331
170
  5
BF
331
1AF
  5
80
331
7A
  5
1B4
331
133
  5
FC
331
B9
  5
176
331
F4
  5
13B
331
16C
  5
C3
331
1AB
  5
84
331
F0
  5
13F
331
168
  5
C7
331
12F
  5
100
331
B5
  5
17A
331
1A7
  5
88
331
B1
  5
17E
331
12B
  5
104
331
1A3
  5
8C
331
AD
  5
182
331
76
  5
1B7
331
166
  5
C9
331
127
  5
108
331
EC
  5
143
331
19F
  5
90
331
E8
  5
147
331
162
  5
CD
331
123
  5
10C
331
A9
  5
186
331
19B
  5
94
331
E4
  5
14B
331
A5
  5
18A
331
11F
  5
110
331
15E
  5
D1
331
197
  5
98
331
E0
  5
14F
331
A1
  5
18E
331
15A
  5
D5
331
11B
  5
114
331
193
  5
9C
331
9D
  5
192
331
156
  5
D9
331
117
  5
118
331
DC
  5
153
331
18F
  5
A0
331
D8
  5
157
331
152
  5
DD
331
113
  5
11C
331
99
  5
196
331
18B
  5
A4
331
D4
  5
15B
331
95
  5
19A
331
10F
  5
120
331
14E
  5
E1
331
187
  5
A8
331
D0
  5
15F
331
91
  5
19E
331
10B
  5
124
331
14A
  5
E5
331
183
  5
AC
331
8D
  5
1A2
331
146
  5
E9
331
107
  5
128
331
CC
  5
163
331
17F
  5
B0
331
C8
  5
167
331
142
  5
ED
331
103
  5
12C
331
89
  5
1A6
331
17B
  5
B4
331
C4
  5
16B
331
13E
  5
F1
331
85
  5
1AA
331
FF
  5
130
331
1B6
  5
78
331
177
  5
B8
331
C0
  5
16F
331
81
  5
1AE
331
13A
  5
F5
331
FB
  5
134
331
1B2
  5
7D
331
173
  5
BC
331
7D
  5
1B2
331
136
  5
F9
331
BC
  5
173
331
F7
  5
138
331
16F
  5
C0
331
1AE
  5
81
331
79
  5
1B5
331
132
  5
FD
331
B8
  5
177
331
F3
  5
13C
331
1AA
  5
85
331
16B
  5
C4
331
12E
  5
101
331
B4
  5
17B
331
1A6
  5
89
331
B0
  5
17F
331
12A
  5
105
331
EF
  5
140
331
1A2
  5
8D
331
AC
  5
183
331
165
  5
CA
331
126
  5
109
331
EB
  5
144
331
19E
  5
91
331
161
  5
CE
331
122
  5
10D
331
A8
  5
187
331
19A
  5
95
331
E7
  5
148
331
E3
  5
14C
331
A4
  5
18B
331
11E
  5
111
331
15D
  5
D2
331
196
  5
99
331
DF
  5
150
331
A0
  5
18F
331
159
  5
D6
331
11A
  5
115
331
192
  5
9D
331
9C
  5
193
331
155
  5
DA
331
116
  5
119
331
DB
  5
154
331
18E
  5
A1
331
151
  5
DE
331
112
  5
11D
331
98
  5
197
331
18A
  5
A5
331
D7
  5
158
331
D3
  5
15C
331
94
  5
19B
331
10E
  5
121
331
14D
  5
E2
331
186
  5
A9
331
CF
  5
160
331
90
  5
19F
331
149
  5
E6
331
10A
  5
125
331
182
  5
AD
331
8C
  5
1A3
331
145
  5
EA
331
106
  5
129
331
CB
  5
164
331
17E
  5
B1
331
141
  5
EE
331
88
  5
1A7
331
102
  5
12D
331
1B9
  5
1BC
331
17A
  5
B5
331
C7
  5
168
331
C3
  5
16C
331
84
  5
1AB
331
13D
  5
F2
331
FE
  5
131
331
1B5
  5
79
331
176
  5
B9
331
BF
  5
170
331
80
  5
1AF
331
139
  5
F6
331
FA
  5
135
331
1B1
  5
7E
331
172
  5
BD
331
135
  5
FA
331
BB
  5
174
331
F6
  5
139
331
16E
  5
C1
331
1AD
  5
82
331
131
  5
FE
331
78
  5
1B6
331
F2
  5
13D
331
1A9
  5
86
331
16A
  5
C5
331
B7
  5
178
331
1A5
  5
8A
331
12D
  5
102
331
B3
  5
17C
331
AF
  5
180
331
1A1
  5
8E
331
129
  5
106
331
EE
  5
141
331
EA
  5
145
331
164
  5
CB
331
19D
  5
92
331
125
  5
10A
331
AB
  5
184
331
160
  5
CF
331
199
  5
96
331
121
  5
10E
331
E6
  5
149
331
A7
  5
188
331
E2
  5
14D
331
A3
  5
18C
331
195
  5
9A
331
11D
  5
112
331
15C
  5
D3
331
9F
  5
190
331
158
  5
D7
331
191
  5
9E
331
119
  5
116
331
DE
  5
151
331
9B
  5
194
331
154
  5
DB
331
18D
  5
A2
331
115
  5
11A
331
DA
  5
155
331
150
  5
DF
331
189
  5
A6
331
111
  5
11E
331
D6
  5
159
331
97
  5
198
331
D2
  5
15D
331
93
  5
19C
331
185
  5
AA
331
10D
  5
122
331
14C
  5
E3
331
CE
  5
161
331
8F
  5
1A0
331
148
  5
E7
331
181
  5
AE
331
109
  5
126
331
8B
  5
1A4
331
1BC
  5
1B9
331
144
  5
EB
331
17D
  5
B2
331
105
  5
12A
331
CA
  5
165
331
1B8
  5
6F
331
140
  5
EF
331
179
  5
B6
331
101
  5
12E
331
C6
  5
169
331
87
  5
1A8
331
C2
  5
16D
331
83
  5
1AC
331
1B4
  5
7A
331
175
  5
BA
331
FD
  5
132
331
13C
  5
F3
331
BE
  5
171
331
7F
  5
1B0
331
1B0
  5
7F
331
138
  5
F7
331
171
  5
BE
331
F9
  5
136
331
7B
  5
1B3
331
1AC
  5
83
331
134
  5
FB
331
16D
  5
C2
331
F5
  5
13A
331
BA
  5
175
331
1A8
  5
87
331
130
  5
FF
331
169
  5
C6
331
F1
  5
13E
  0
XRECORD
  5
1EB
102
{ACAD_REACTORS
330
1EA
102
}
330
1EA
100
AcDbXrecord
280
     1
 70
     1
  0
XRECORD
  5
1ED
102
{ACAD_REACTORS
330
1EA
102
}
330
1EA
100
AcDbXrecord
280
     1
340
24
  0
XRECORD
  5
1EE
102
{ACAD_REACTORS
330
1EA
102
}
330
1EA
100
AcDbXrecord
280
     1
340
24
  0
XRECORD
  5
1EC
102
{ACAD_REACTORS
330
1EA
102
}
330
1EA
100
AcDbXrecord
280
     1
340
24
  0
LAYOUT
  5
1A
102
{ACAD_XDICTIONARY
360
1F2
102
}
102
{ACAD_REACTORS
330
16
102
}
330
16
100
AcDbPlotSettings
  1

  2
\\le-server\HP LaserJet 2100
  4

  6

 40
0.0
 41
0.0
 42
0.0
 43
0.0
 44
0.0
 45
0.0
 46
0.0
 47
0.0
 48
0.0
 49
0.0
140
0.0
141
0.0
142
1.0
143
1.0
 70
   688
 72
     0
 73
     0
 74
     5
  7

 75
    16
147
1.0
148
0.0
149
0.0
100
AcDbLayout
  1
Layout1
 70
     1
 71
     1
 10
0.0
 20
0.0
 11
1189.0
 21
840.9999999999998
 12
0.0
 22
0.0
 32
0.0
 14
0.0
 24
0.0
 34
0.0
 15
1189.0
 25
840.9999999999998
 35
0.0
146
0.0
 13
0.0
 23
0.0
 33
0.0
 16
1.0
 26
0.0
 36
0.0
 17
0.0
 27
1.0
 37
0.0
 76
     0
330
17
  0
LAYOUT
  5
15
102
{ACAD_XDICTIONARY
360
1F0
102
}
102
{ACAD_REACTORS
330
16
102
}
330
16
100
AcDbPlotSettings
  1

  2
\\le-server\HP LaserJet 2100
  4

  6

 40
0.0
 41
0.0
 42
0.0
 43
0.0
 44
0.0
 45
0.0
 46
0.0
 47
0.0
 48
0.0
 49
0.0
140
0.0
141
0.0
142
1.0
143
1.0
 70
  1712
 72
     0
 73
     0
 74
     0
  7

 75
     0
147
1.0
148
0.0
149
0.0
100
AcDbLayout
  1
Model
 70
     1
 71
     0
 10
0.0
 20
0.0
 11
12.0
 21
9.0
 12
0.0
 22
0.0
 32
0.0
 14
0.0
 24
0.0
 34
0.0
 15
0.0
 25
0.0
 35
0.0
146
0.0
 13
0.0
 23
0.0
 33
0.0
 16
1.0
 26
0.0
 36
0.0
 17
0.0
 27
1.0
 37
0.0
 76
     0
330
2
331
29
  0
MATERIAL
  5
3D
102
{ACAD_XDICTIONARY
360
3E
102
}
102
{ACAD_REACTORS
330
B
102
}
330
B
100
AcDbMaterial
  1
ByBlock
 72
     0
 43
0.0208333333333333
 43
0.0
 43
0.0
 43
0.0
 43
0.0
 43
0.0208333333333333
 43
0.0
 43
0.0
 43
0.0
 43
0.0
 43
1.0
 43
0.0
 43
0.0
 43
0.0
 43
0.0
 43
1.0
 77
     0
 47
0.0208333333333333
 47
0.0
 47
0.0
 47
0.0
 47
0.0
 47
0.0208333333333333
 47
0.0
 47
0.0
 47
0.0
 47
0.0
 47
1.0
 47
0.0
 47
0.0
 47
0.0
 47
0.0
 47
1.0
171
     0
 49
0.0208333333333333
 49
0.0
 49
0.0
 49
0.0
 49
0.0
 49
0.0208333333333333
 49
0.0
 49
0.0
 49
0.0
 49
0.0
 49
1.0
 49
0.0
 49
0.0
 49
0.0
 49
0.0
 49
1.0
175
     0
142
0.0208333333333333
142
0.0
142
0.0
142
0.0
142
0.0
142
0.0208333333333333
142
0.0
142
0.0
142
0.0
142
0.0
142
1.0
142
0.0
142
0.0
142
0.0
142
0.0
142
1.0
179
     0
144
0.0208333333333333
144
0.0
144
0.0
144
0.0
144
0.0
144
0.0208333333333333
144
0.0
144
0.0
144
0.0
144
0.0
144
1.0
144
0.0
144
0.0
144
0.0
144
0.0
144
1.0
147
0.0208333333333333
147
0.0
147
0.0
147
0.0
147
0.0
147
0.0208333333333333
147
0.0
147
0.0
147
0.0
147
0.0
147
1.0
147
0.0
147
0.0
147
0.0
147
0.0
147
1.0
  0
MATERIAL
  5
35
102
{ACAD_XDICTIONARY
360
36
102
}
102
{ACAD_REACTORS
330
B
102
}
330
B
100
AcDbMaterial
  1
ByLayer
 72
     0
 43
0.0208333333333333
 43
0.0
 43
0.0
 43
0.0
 43
0.0
 43
0.0208333333333333
 43
0.0
 43
0.0
 43
0.0
 43
0.0
 43
1.0
 43
0.0
 43
0.0
 43
0.0
 43
0.0
 43
1.0
 77
     0
 47
0.0208333333333333
 47
0.0
 47
0.0
 47
0.0
 47
0.0
 47
0.0208333333333333
 47
0.0
 47
0.0
 47
0.0
 47
0.0
 47
1.0
 47
0.0
 47
0.0
 47
0.0
 47
0.0
 47
1.0
171
     0
 49
0.0208333333333333
 49
0.0
 49
0.0
 49
0.0
 49
0.0
 49
0.0208333333333333
 49
0.0
 49
0.0
 49
0.0
 49
0.0
 49
1.0
 49
0.0
 49
0.0
 49
0.0
 49
0.0
 49
1.0
175
     0
142
0.0208333333333333
142
0.0
142
0.0
142
0.0
142
0.0
142
0.0208333333333333
142
0.0
142
0.0
142
0.0
142
0.0
142
1.0
142
0.0
142
0.0
142
0.0
142
0.0
142
1.0
179
     0
144
0.0208333333333333
144
0.0
144
0.0
144
0.0
144
0.0
144
0.0208333333333333
144
0.0
144
0.0
144
0.0
144
0.0
144
1.0
144
0.0
144
0.0
144
0.0
144
0.0
144
1.0
147
0.0208333333333333
147
0.0
147
0.0
147
0.0
147
0.0
147
0.0208333333333333
147
0.0
147
0.0
147
0.0
147
0.0
147
1.0
147
0.0
147
0.0
147
0.0
147
0.0
147
1.0
  0
MATERIAL
  5
A
102
{ACAD_XDICTIONARY
360
C
102
}
102
{ACAD_REACTORS
330
B
102
}
330
B
100
AcDbMaterial
  1
Global
 72
     0
 43
0.0208333333333333
 43
0.0
 43
0.0
 43
0.0
 43
0.0
 43
0.0208333333333333
 43
0.0
 43
0.0
 43
0.0
 43
0.0
 43
1.0
 43
0.0
 43
0.0
 43
0.0
 43
0.0
 43
1.0
 77
     0
 47
0.0208333333333333
 47
0.0
 47
0.0
 47
0.0
 47
0.0
 47
0.0208333333333333
 47
0.0
 47
0.0
 47
0.0
 47
0.0
 47
1.0
 47
0.0
 47
0.0
 47
0.0
 47
0.0
 47
1.0
171
     0
 49
0.0208333333333333
 49
0.0
 49
0.0
 49
0.0
 49
0.0
 49
0.0208333333333333
 49
0.0
 49
0.0
 49
0.0
 49
0.0
 49
1.0
 49
0.0
 49
0.0
 49
0.0
 49
0.0
 49
1.0
175
     0
142
0.0208333333333333
142
0.0
142
0.0
142
0.0
142
0.0
142
0.0208333333333333
142
0.0
142
0.0
142
0.0
142
0.0
142
1.0
142
0.0
142
0.0
142
0.0
142
0.0
142
1.0
179
     0
144
0.0208333333333333
144
0.0
144
0.0
144
0.0
144
0.0
144
0.0208333333333333
144
0.0
144
0.0
144
0.0
144
0.0
144
1.0
144
0.0
144
0.0
144
0.0
144
0.0
144
1.0
147
0.0208333333333333
147
0.0
147
0.0
147
0.0
147
0.0
147
0.0208333333333333
147
0.0
147
0.0
147
0.0
147
0.0
147
1.0
147
0.0
147
0.0
147
0.0
147
0.0
147
1.0
  0
MLEADERSTYLE
  5
1DE
102
{ACAD_REACTORS
330
48
102
}
330
48
100
AcDbMLeaderStyle
170
     2
171
     1
172
     0
 90
        2
 40
0.0
 41
0.0
173
     1
 91
-1056964608
340
24
 92
       -2
290
     1
 42
2.0
291
     1
 43
0.36
  3
Standard
 44
4.0
300

342
21
174
     1
178
     6
175
     1
176
     0
 93
-1056964608
 45
4.0
292
     0
297
     0
 46
4.0
 94
-1056964608
 47
1.0
 49
1.0
140
1.0
293
     1
141
0.0
294
     1
177
     0
142
1.0
295
     0
296
     0
143
0.125
1001
ACAD_MLEADERVER
1070
     2
  0
MLINESTYLE
  5
49
102
{ACAD_REACTORS
330
33
102
}
330
33
100
AcDbMlineStyle
  2
STANDARD
 70
     0
  3

 62
   256
 51
90.0
 52
90.0
 71
     2
 49
0.5
 62
   256
  6
BYLAYER
 49
-0.5
 62
   256
  6
BYLAYER
  0
ACDBPLACEHOLDER
  5
7
102
{ACAD_REACTORS
330
8
102
}
330
8
  0
SCALE
  5
4E
102
{ACAD_REACTORS
330
46
102
}
330
46
100
AcDbScale
 70
     0
300
1:1
140
1.0
141
1.0
290
     1
  0
SCALE
  5
4F
102
{ACAD_REACTORS
330
46
102
}
330
46
100
AcDbScale
 70
     0
300
1:2
140
1.0
141
2.0
290
     0
  0
SCALE
  5
50
102
{ACAD_REACTORS
330
46
102
}
330
46
100
AcDbScale
 70
     0
300
1:4
140
1.0
141
4.0
290
     0
  0
SCALE
  5
51
102
{ACAD_REACTORS
330
46
102
}
330
46
100
AcDbScale
 70
     0
300
1:5
140
1.0
141
5.0
290
     0
  0
SCALE
  5
52
102
{ACAD_REACTORS
330
46
102
}
330
46
100
AcDbScale
 70
     0
300
1:8
140
1.0
141
8.0
290
     0
  0
SCALE
  5
53
102
{ACAD_REACTORS
330
46
102
}
330
46
100
AcDbScale
 70
     0
300
1:10
140
1.0
141
10.0
290
     0
  0
SCALE
  5
54
102
{ACAD_REACTORS
330
46
102
}
330
46
100
AcDbScale
 70
     0
300
1:16
140
1.0
141
16.0
290
     0
  0
SCALE
  5
55
102
{ACAD_REACTORS
330
46
102
}
330
46
100
AcDbScale
 70
     0
300
1:20
140
1.0
141
20.0
290
     0
  0
SCALE
  5
56
102
{ACAD_REACTORS
330
46
102
}
330
46
100
AcDbScale
 70
     0
300
1:30
140
1.0
141
30.0
290
     0
  0
SCALE
  5
57
102
{ACAD_REACTORS
330
46
102
}
330
46
100
AcDbScale
 70
     0
300
1:40
140
1.0
141
40.0
290
     0
  0
SCALE
  5
58
102
{ACAD_REACTORS
330
46
102
}
330
46
100
AcDbScale
 70
     0
300
1:50
140
1.0
141
50.0
290
     0
  0
SCALE
  5
59
102
{ACAD_REACTORS
330
46
102
}
330
46
100
AcDbScale
 70
     0
300
1:100
140
1.0
141
100.0
290
     0
  0
SCALE
  5
5A
102
{ACAD_REACTORS
330
46
102
}
330
46
100
AcDbScale
 70
     0
300
2:1
140
2.0
141
1.0
290
     0
  0
SCALE
  5
5B
102
{ACAD_REACTORS
330
46
102
}
330
46
100
AcDbScale
 70
     0
300
4:1
140
4.0
141
1.0
290
     0
  0
SCALE
  5
5C
102
{ACAD_REACTORS
330
46
102
}
330
46
100
AcDbScale
 70
     0
300
8:1
140
8.0
141
1.0
290
     0
  0
SCALE
  5
5D
102
{ACAD_REACTORS
330
46
102
}
330
46
100
AcDbScale
 70
     0
300
10:1
140
10.0
141
1.0
290
     0
  0
SCALE
  5
5E
102
{ACAD_REACTORS
330
46
102
}
330
46
100
AcDbScale
 70
     0
300
100:1
140
100.0
141
1.0
290
     0
  0
SCALE
  5
5F
102
{ACAD_REACTORS
330
46
102
}
330
46
100
AcDbScale
 70
     0
300
1/128" = 1'-0"
140
0.0078125
141
12.0
290
     0
  0
SCALE
  5
60
102
{ACAD_REACTORS
330
46
102
}
330
46
100
AcDbScale
 70
     0
300
1/64" = 1'-0"
140
0.015625
141
12.0
290
     0
  0
SCALE
  5
61
102
{ACAD_REACTORS
330
46
102
}
330
46
100
AcDbScale
 70
     0
300
1/32" = 1'-0"
140
0.03125
141
12.0
290
     0
  0
SCALE
  5
62
102
{ACAD_REACTORS
330
46
102
}
330
46
100
AcDbScale
 70
     0
300
1/16" = 1'-0"
140
0.0625
141
12.0
290
     0
  0
SCALE
  5
63
102
{ACAD_REACTORS
330
46
102
}
330
46
100
AcDbScale
 70
     0
300
3/32" = 1'-0"
140
0.09375
141
12.0
290
     0
  0
SCALE
  5
64
102
{ACAD_REACTORS
330
46
102
}
330
46
100
AcDbScale
 70
     0
300
1/8" = 1'-0"
140
0.125
141
12.0
290
     0
  0
SCALE
  5
65
102
{ACAD_REACTORS
330
46
102
}
330
46
100
AcDbScale
 70
     0
300
3/16" = 1'-0"
140
0.1875
141
12.0
290
     0
  0
SCALE
  5
66
102
{ACAD_REACTORS
330
46
102
}
330
46
100
AcDbScale
 70
     0
300
1/4" = 1'-0"
140
0.25
141
12.0
290
     0
  0
SCALE
  5
67
102
{ACAD_REACTORS
330
46
102
}
330
46
100
AcDbScale
 70
     0
300
3/8" = 1'-0"
140
0.375
141
12.0
290
     0
  0
SCALE
  5
68
102
{ACAD_REACTORS
330
46
102
}
330
46
100
AcDbScale
 70
     0
300
1/2" = 1'-0"
140
0.5
141
12.0
290
     0
  0
SCALE
  5
69
102
{ACAD_REACTORS
330
46
102
}
330
46
100
AcDbScale
 70
     0
300
3/4" = 1'-0"
140
0.75
141
12.0
290
     0
  0
SCALE
  5
6A
102
{ACAD_REACTORS
330
46
102
}
330
46
100
AcDbScale
 70
     0
300
1" = 1'-0"
140
1.0
141
12.0
290
     0
  0
SCALE
  5
6B
102
{ACAD_REACTORS
330
46
102
}
330
46
100
AcDbScale
 70
     0
300
1-1/2" = 1'-0"
140
1.5
141
12.0
290
     0
  0
SCALE
  5
6C
102
{ACAD_REACTORS
330
46
102
}
330
46
100
AcDbScale
 70
     0
300
3" = 1'-0"
140
3.0
141
12.0
290
     0
  0
SCALE
  5
6D
102
{ACAD_REACTORS
330
46
102
}
330
46
100
AcDbScale
 70
     0
300
6" = 1'-0"
140
6.0
141
12.0
290
     0
  0
SCALE
  5
6E
102
{ACAD_REACTORS
330
46
102
}
330
46
100
AcDbScale
 70
     0
300
1'-0" = 1'-0"
140
12.0
141
12.0
290
     0
  0
TABLESTYLE
  5
4A
102
{ACAD_XDICTIONARY
360
4B
102
}
102
{ACAD_REACTORS
330
47
102
}
330
47
100
AcDbTableStyle
  3
Standard
 70
     0
 71
     0
 40
0.06
 41
0.06
280
     0
281
     0
  7
STANDARD
140
0.18
170
     2
 62
     0
 63
     7
283
     0
274
    -2
284
     1
 64
     0
275
    -2
285
     1
 65
     0
276
    -2
286
     1
 66
     0
277
    -2
287
     1
 67
     0
278
    -2
288
     1
 68
     0
279
    -2
289
     1
 69
     0
  7
STANDARD
140
0.25
170
     5
 62
     0
 63
     7
283
     0
274
    -2
284
     1
 64
     0
275
    -2
285
     1
 65
     0
276
    -2
286
     1
 66
     0
277
    -2
287
     1
 67
     0
278
    -2
288
     1
 68
     0
279
    -2
289
     1
 69
     0
  7
STANDARD
140
0.18
170
     5
 62
     0
 63
     7
283
     0
274
    -2
284
     1
 64
     0
275
    -2
285
     1
 65
     0
276
    -2
286
     1
 66
     0
277
    -2
287
     1
 67
     0
278
    -2
288
     1
 68
     0
279
    -2
289
     1
 69
     0
  0
VISUALSTYLE
  5
2A
102
{ACAD_XDICTIONARY
360
1F4
102
}
102
{ACAD_REACTORS
330
2B
102
}
330
2B
100
AcDbVisualStyle
  2
2dWireframe
 70
     4
 71
     0
 72
     2
 73
     0
 90
        0
 40
-0.6
 41
-30.0
 62
     5
 63
     7
 74
     1
 91
        4
 64
     7
 65
   257
 75
     1
175
     1
 42
1.0
 92
        0
 66
   257
 43
1.0
 76
     1
 77
     6
 78
     2
 67
     7
 79
     5
170
     0
171
     0
290
     0
174
     0
 93
        1
 44
0.0
173
     0
291
     0
 45
0.0
1001
ACAD
1000
AcDbSavedByObjectVersion
1070
     0
  0
VISUALSTYLE
  5
1CD
102
{ACAD_XDICTIONARY
360
205
102
}
102
{ACAD_REACTORS
330
2B
102
}
330
2B
100
AcDbVisualStyle
  2
Basic
 70
     7
 71
     1
 72
     0
 73
     1
 90
        0
 40
-0.6
 41
-30.0
 62
     5
 63
     7
 74
     0
 91
        4
 64
     7
 65
   257
 75
     1
175
     1
 42
1.0
 92
        8
 66
     7
 43
1.0
 76
     1
 77
     6
 78
     2
 67
     7
 79
     5
170
     0
171
     0
290
     0
174
     0
 93
        1
 44
0.0
173
     0
291
     1
 45
0.0
1001
ACAD
1000
AcDbSavedByObjectVersion
1070
     0
  0
VISUALSTYLE
  5
1D1
102
{ACAD_XDICTIONARY
360
20D
102
}
102
{ACAD_REACTORS
330
2B
102
}
330
2B
100
AcDbVisualStyle
  2
Brighten
 70
    12
 71
     2
 72
     2
 73
     0
 90
        0
 40
-0.6
 41
-30.0
 62
     5
 63
     7
 74
     1
 91
        4
 64
     7
 65
   257
 75
     1
175
     1
 42
1.0
 92
        8
 66
     7
 43
1.0
 76
     1
 77
     6
 78
     2
 67
     7
 79
     5
170
     0
171
     0
290
     0
174
     0
 93
        1
 44
50.0
173
     0
291
     1
 45
0.0
1001
ACAD
1000
AcDbSavedByObjectVersion
1070
     0
  0
VISUALSTYLE
  5
1D5
102
{ACAD_XDICTIONARY
360
215
102
}
102
{ACAD_REACTORS
330
2B
102
}
330
2B
100
AcDbVisualStyle
  2
ColorChange
 70
    16
 71
     2
 72
     2
 73
     3
 90
        0
 40
-0.6
 41
-30.0
 62
     5
 63
     8
 74
     1
 91
        4
 64
     7
 65
   257
 75
     1
175
     1
 42
1.0
 92
        8
 66
     8
 43
1.0
 76
     1
 77
     6
 78
     2
 67
     7
 79
     5
170
     0
171
     0
290
     0
174
     0
 93
        1
 44
0.0
173
     0
291
     1
 45
0.0
1001
ACAD
1000
AcDbSavedByObjectVersion
1070
     0
  0
VISUALSTYLE
  5
1CF
102
{ACAD_XDICTIONARY
360
209
102
}
102
{ACAD_REACTORS
330
2B
102
}
330
2B
100
AcDbVisualStyle
  2
Conceptual
 70
     9
 71
     3
 72
     2
 73
     0
 90
        0
 40
-0.6
 41
-30.0
 62
     5
 63
     7
 74
     2
 91
        2
 64
     7
 65
   257
 75
     1
175
     1
 42
179.0
 92
        8
 66
     7
 43
1.0
 76
     1
 77
     6
 78
     2
 67
     7
 79
     3
170
     0
171
     0
290
     0
174
     0
 93
        1
 44
0.0
173
     0
291
     0
 45
0.0
1001
ACAD
1000
AcDbSavedByObjectVersion
1070
     0
  0
VISUALSTYLE
  5
1D0
102
{ACAD_XDICTIONARY
360
20B
102
}
102
{ACAD_REACTORS
330
2B
102
}
330
2B
100
AcDbVisualStyle
  2
Dim
 70
    11
 71
     2
 72
     2
 73
     0
 90
        0
 40
-0.6
 41
-30.0
 62
     5
 63
     7
 74
     1
 91
        4
 64
     7
 65
   257
 75
     1
175
     1
 42
1.0
 92
        8
 66
     7
 43
1.0
 76
     1
 77
     6
 78
     2
 67
     7
 79
     5
170
     0
171
     0
290
     0
174
     0
 93
        1
 44
-50.0
173
     0
291
     1
 45
0.0
1001
ACAD
1000
AcDbSavedByObjectVersion
1070
     0
  0
VISUALSTYLE
  5
1DD
102
{ACAD_XDICTIONARY
360
225
102
}
102
{ACAD_REACTORS
330
2B
102
}
330
2B
100
AcDbVisualStyle
  2
EdgeColorOff
 70
    22
 71
     2
 72
     2
 73
     0
 90
        0
 40
-0.6
 41
-30.0
 62
     5
 63
     7
 74
     1
 91
        4
 64
     7
 65
   257
 75
     1
175
     1
 42
1.0
 92
        8
 66
     7
 43
1.0
 76
     1
 77
     6
 78
     2
 67
     7
 79
     5
170
     0
171
     0
290
     0
174
     0
 93
        1
 44
0.0
173
     0
291
     1
 45
0.0
1001
ACAD
1000
AcDbSavedByObjectVersion
1070
     0
  0
VISUALSTYLE
  5
1D4
102
{ACAD_XDICTIONARY
360
213
102
}
102
{ACAD_REACTORS
330
2B
102
}
330
2B
100
AcDbVisualStyle
  2
Facepattern
 70
    15
 71
     2
 72
     2
 73
     0
 90
        0
 40
-0.6
 41
-30.0
 62
     5
 63
     7
 74
     1
 91
        4
 64
     7
 65
   257
 75
     1
175
     1
 42
1.0
 92
        8
 66
     7
 43
1.0
 76
     1
 77
     6
 78
     2
 67
     7
 79
     5
170
     0
171
     0
290
     0
174
     0
 93
        1
 44
0.0
173
     0
291
     1
 45
0.0
1001
ACAD
1000
AcDbSavedByObjectVersion
1070
     0
  0
VISUALSTYLE
  5
1C9
102
{ACAD_XDICTIONARY
360
1FD
102
}
102
{ACAD_REACTORS
330
2B
102
}
330
2B
100
AcDbVisualStyle
  2
Flat
 70
     0
 71
     2
 72
     1
 73
     1
 90
        2
 40
-0.6
 41
30.0
 62
     5
 63
     7
 74
     0
 91
        0
 64
     7
 65
   257
 75
     1
175
     1
 42
1.0
 92
        8
 66
     7
 43
1.0
 76
     1
 77
     6
 78
     2
 67
     7
 79
     5
170
     0
171
     0
290
     0
174
     0
 93
       13
 44
0.0
173
     0
291
     1
 45
0.0
1001
ACAD
1000
AcDbSavedByObjectVersion
1070
     0
  0
VISUALSTYLE
  5
1CA
102
{ACAD_XDICTIONARY
360
1FF
102
}
102
{ACAD_REACTORS
330
2B
102
}
330
2B
100
AcDbVisualStyle
  2
FlatWithEdges
 70
     1
 71
     2
 72
     1
 73
     1
 90
        2
 40
-0.6
 41
30.0
 62
     5
 63
     7
 74
     1
 91
        0
 64
     7
 65
   257
 75
     1
175
     1
 42
1.0
 92
        0
 66
   257
 43
1.0
 76
     1
 77
     6
 78
     2
 67
     7
 79
     5
170
     0
171
     0
290
     0
174
     0
 93
       13
 44
0.0
173
     0
291
     1
 45
0.0
1001
ACAD
1000
AcDbSavedByObjectVersion
1070
     0
  0
VISUALSTYLE
  5
1CB
102
{ACAD_XDICTIONARY
360
201
102
}
102
{ACAD_REACTORS
330
2B
102
}
330
2B
100
AcDbVisualStyle
  2
Gouraud
 70
     2
 71
     2
 72
     2
 73
     1
 90
        2
 40
-0.6
 41
30.0
 62
     5
 63
     7
 74
     0
 91
        0
 64
     7
 65
   257
 75
     1
175
     1
 42
1.0
 92
        0
 66
     7
 43
1.0
 76
     1
 77
     6
 78
     2
 67
     7
 79
     5
170
     0
171
     0
290
     0
174
     0
 93
       13
 44
0.0
173
     0
291
     1
 45
0.0
1001
ACAD
1000
AcDbSavedByObjectVersion
1070
     0
  0
VISUALSTYLE
  5
1CC
102
{ACAD_XDICTIONARY
360
203
102
}
102
{ACAD_REACTORS
330
2B
102
}
330
2B
100
AcDbVisualStyle
  2
GouraudWithEdges
 70
     3
 71
     2
 72
     2
 73
     1
 90
        2
 40
-0.6
 41
30.0
 62
     5
 63
     7
 74
     1
 91
        0
 64
     7
 65
   257
 75
     1
175
     1
 42
1.0
 92
        0
 66
   257
 43
1.0
 76
     1
 77
     6
 78
     2
 67
     7
 79
     5
170
     0
171
     0
290
     0
174
     0
 93
       13
 44
0.0
173
     0
291
     1
 45
0.0
1001
ACAD
1000
AcDbSavedByObjectVersion
1070
     0
  0
VISUALSTYLE
  5
1CE
102
{ACAD_XDICTIONARY
360
207
102
}
102
{ACAD_REACTORS
330
2B
102
}
330
2B
100
AcDbVisualStyle
  2
Hidden
 70
     6
 71
     1
 72
     2
 73
     2
 90
        0
 40
-0.6
 41
-30.0
 62
     5
 63
     7
 74
     2
 91
        2
 64
     7
 65
   257
 75
     2
175
     1
 42
40.0
 92
        0
 66
   257
 43
1.0
 76
     1
 77
     6
 78
     2
 67
     7
 79
     3
170
     0
171
     0
290
     0
174
     0
 93
        1
 44
0.0
173
     0
291
     0
 45
0.0
1001
ACAD
1000
AcDbSavedByObjectVersion
1070
     0
  0
VISUALSTYLE
  5
1DB
102
{ACAD_XDICTIONARY
360
221
102
}
102
{ACAD_REACTORS
330
2B
102
}
330
2B
100
AcDbVisualStyle
  2
JitterOff
 70
    20
 71
     2
 72
     2
 73
     0
 90
        0
 40
-0.6
 41
-30.0
 62
     5
 63
     7
 74
     1
 91
        4
 64
     7
 65
   257
 75
     1
175
     1
 42
1.0
 92
       10
 66
     7
 43
1.0
 76
     1
 77
     6
 78
     2
 67
     7
 79
     5
170
     0
171
     0
290
     0
174
     0
 93
        1
 44
0.0
173
     0
291
     1
 45
0.0
1001
ACAD
1000
AcDbSavedByObjectVersion
1070
     0
  0
VISUALSTYLE
  5
1D3
102
{ACAD_XDICTIONARY
360
211
102
}
102
{ACAD_REACTORS
330
2B
102
}
330
2B
100
AcDbVisualStyle
  2
Linepattern
 70
    14
 71
     2
 72
     2
 73
     0
 90
        0
 40
-0.6
 41
-30.0
 62
     5
 63
     7
 74
     1
 91
        4
 64
     7
 65
   257
 75
     7
175
     7
 42
1.0
 92
        8
 66
     7
 43
1.0
 76
     1
 77
     6
 78
     2
 67
     7
 79
     5
170
     0
171
     0
290
     0
174
     0
 93
        1
 44
0.0
173
     0
291
     1
 45
0.0
1001
ACAD
1000
AcDbSavedByObjectVersion
1070
     0
  0
VISUALSTYLE
  5
1DC
102
{ACAD_XDICTIONARY
360
223
102
}
102
{ACAD_REACTORS
330
2B
102
}
330
2B
100
AcDbVisualStyle
  2
OverhangOff
 70
    21
 71
     2
 72
     2
 73
     0
 90
        0
 40
-0.6
 41
-30.0
 62
     5
 63
     7
 74
     1
 91
        4
 64
     7
 65
   257
 75
     1
175
     1
 42
1.0
 92
        9
 66
     7
 43
1.0
 76
     1
 77
     6
 78
     2
 67
     7
 79
     5
170
     0
171
     0
290
     0
174
     0
 93
        1
 44
0.0
173
     0
291
     1
 45
0.0
1001
ACAD
1000
AcDbSavedByObjectVersion
1070
     0
  0
VISUALSTYLE
  5
4C
102
{ACAD_XDICTIONARY
360
1F9
102
}
102
{ACAD_REACTORS
330
2B
102
}
330
2B
100
AcDbVisualStyle
  2
Realistic
 70
     8
 71
     2
 72
     2
 73
     0
 90
        0
 40
-0.6
 41
-30.0
 62
     5
 63
     7
 74
     1
 91
        0
 64
     7
 65
   257
 75
     1
175
     1
 42
1.0
 92
        8
 66
     8
 43
1.0
 76
     1
 77
     6
 78
     2
 67
     7
 79
     5
170
     0
171
     0
290
     0
174
     0
 93
       13
 44
0.0
173
     0
291
     0
 45
0.0
1001
ACAD
1000
AcDbSavedByObjectVersion
1070
     0
  0
VISUALSTYLE
  5
1DA
102
{ACAD_XDICTIONARY
360
21F
102
}
102
{ACAD_REACTORS
330
2B
102
}
330
2B
100
AcDbVisualStyle
  2
Shaded
 70
    27
 71
     2
 72
     2
 73
     1
 90
        2
 40
-0.6
 41
30.0
 62
     5
 63
     7
 74
     0
 91
        4
 64
     7
 65
   257
 75
     1
175
     1
 42
1.0
 92
        8
 66
   257
 43
1.0
 76
     1
 77
     6
 78
     2
 67
     8
 79
     3
170
     0
171
     0
290
     0
174
     0
 93
        5
 44
0.0
173
     0
291
     0
 45
0.0
1001
ACAD
1000
AcDbSavedByObjectVersion
1070
     0
  0
VISUALSTYLE
  5
1D9
102
{ACAD_XDICTIONARY
360
21D
102
}
102
{ACAD_REACTORS
330
2B
102
}
330
2B
100
AcDbVisualStyle
  2
Shaded with edges
 70
    26
 71
     2
 72
     2
 73
     1
 90
        2
 40
-0.6
 41
30.0
 62
     5
 63
     7
 74
     1
 91
       10
 64
     7
 65
   257
 75
     2
175
     1
 42
1.0
 92
        8
 66
   257
 43
1.0
 76
     1
 77
     6
 78
     2
 67
     7
 79
     3
170
     0
171
     0
290
     0
174
     0
 93
        5
 44
0.0
173
     0
291
     0
 45
0.0
1001
ACAD
1000
AcDbSavedByObjectVersion
1070
     0
  0
VISUALSTYLE
  5
1D6
102
{ACAD_XDICTIONARY
360
217
102
}
102
{ACAD_REACTORS
330
2B
102
}
330
2B
100
AcDbVisualStyle
  2
Shades of Gray
 70
    23
 71
     2
 72
     2
 73
     3
 90
        0
 40
-0.6
 41
-30.0
 62
     5
 63
     7
 74
     2
 91
        2
 64
     7
 65
     7
 75
     1
175
     1
 42
40.0
 92
        8
 66
     7
 43
1.0
 76
     1
 77
     6
 78
     2
 67
     7
 79
     3
170
     0
171
     0
290
     0
174
     0
 93
        1
 44
0.0
173
     0
291
     0
 45
0.0
1001
ACAD
1000
AcDbSavedByObjectVersion
1070
     0
  0
VISUALSTYLE
  5
1D7
102
{ACAD_XDICTIONARY
360
219
102
}
102
{ACAD_REACTORS
330
2B
102
}
330
2B
100
AcDbVisualStyle
  2
Sketchy
 70
    24
 71
     1
 72
     2
 73
     2
 90
        0
 40
-0.6
 41
-30.0
 62
     5
 63
     7
 74
     2
 91
        2
 64
     7
 65
     7
 75
     1
175
     1
 42
40.0
 92
       11
 66
     7
 43
1.0
 76
     1
 77
     6
 78
     2
 67
     7
 79
     6
170
     0
171
     0
290
     0
174
     0
 93
        1
 44
0.0
173
     0
291
     0
 45
0.0
1001
ACAD
1000
AcDbSavedByObjectVersion
1070
     0
  0
VISUALSTYLE
  5
1D2
102
{ACAD_XDICTIONARY
360
20F
102
}
102
{ACAD_REACTORS
330
2B
102
}
330
2B
100
AcDbVisualStyle
  2
Thicken
 70
    13
 71
     2
 72
     2
 73
     0
 90
        0
 40
-0.6
 41
-30.0
 62
     5
 63
     7
 74
     1
 91
        4
 64
     7
 65
   257
 75
     1
175
     1
 42
1.0
 92
       12
 66
     7
 43
1.0
 76
     1
 77
     6
 78
     2
 67
     7
 79
     5
170
     0
171
     0
290
     0
174
     0
 93
        1
 44
0.0
173
     0
291
     1
 45
0.0
1001
ACAD
1000
AcDbSavedByObjectVersion
1070
     0
  0
VISUALSTYLE
  5
4D
102
{ACAD_XDICTIONARY
360
1FB
102
}
102
{ACAD_REACTORS
330
2B
102
}
330
2B
100
AcDbVisualStyle
  2
Wireframe
 70
     5
 71
     0
 72
     2
 73
     0
 90
        0
 40
-0.6
 41
-30.0
 62
     5
 63
     7
 74
     1
 91
        4
 64
     7
 65
   257
 75
     1
175
     1
 42
1.0
 92
        0
 66
   257
 43
1.0
 76
     1
 77
     6
 78
     2
 67
     7
 79
     3
170
     0
171
     0
290
     0
174
     0
 93
        1
 44
0.0
173
     0
291
     0
 45
0.0
1001
ACAD
1000
AcDbSavedByObjectVersion
1070
     0
  0
VISUALSTYLE
  5
1D8
102
{ACAD_XDICTIONARY
360
21B
102
}
102
{ACAD_REACTORS
330
2B
102
}
330
2B
100
AcDbVisualStyle
  2
X-Ray
 70
    25
 71
     2
 72
     2
 73
     1
 90
        1
 40
0.5
 41
-30.0
 62
     5
 63
     7
 74
     1
 91
        0
 64
     7
 65
   257
 75
     1
175
     1
 42
1.0
 92
        8
 66
     7
 43
1.0
 76
     1
 77
     6
 78
     2
 67
     7
 79
     3
170
     0
171
     0
290
     0
174
     0
 93
       13
 44
0.0
173
     0
291
     0
 45
0.0
1001
ACAD
1000
AcDbSavedByObjectVersion
1070
     0
  0
DICTIONARYVAR
  5
1C4
102
{ACAD_REACTORS
330
1C0
102
}
330
1C0
100
DictionaryVariables
280
     0
  1
1:1
  0
DICTIONARYVAR
  5
1C2
102
{ACAD_REACTORS
330
1C0
102
}
330
1C0
100
DictionaryVariables
280
     0
  1
STANDARD
  0
DICTIONARYVAR
  5
1C1
102
{ACAD_REACTORS
330
1C0
102
}
330
1C0
100
DictionaryVariables
280
     0
  1
STANDARD
  0
DICTIONARYVAR
  5
1E5
102
{ACAD_REACTORS
330
1C0
102
}
330
1C0
100
DictionaryVariables
280
     0
  1
1
  0
DICTIONARYVAR
  5
1E4
102
{ACAD_REACTORS
330
1C0
102
}
330
1C0
100
DictionaryVariables
280
     0
  1
1
  0
DICTIONARYVAR
  5
1E3
102
{ACAD_REACTORS
330
1C0
102
}
330
1C0
100
DictionaryVariables
280
     0
  1
0
  0
DICTIONARYVAR
  5
1C6
102
{ACAD_REACTORS
330
1C0
102
}
330
1C0
100
DictionaryVariables
280
     0
  1
1
  0
DICTIONARYVAR
  5
1C7
102
{ACAD_REACTORS
330
1C0
102
}
330
1C0
100
DictionaryVariables
280
     0
  1
15
  0
DICTIONARYVAR
  5
1C5
102
{ACAD_REACTORS
330
1C0
102
}
330
1C0
100
DictionaryVariables
280
     0
  1
0
  0
DICTIONARYVAR
  5
1C3
102
{ACAD_REACTORS
330
1C0
102
}
330
1C0
100
DictionaryVariables
280
     0
  1
0
  0
DICTIONARYVAR
  5
1E6
102
{ACAD_REACTORS
330
1C0
102
}
330
1C0
100
DictionaryVariables
280
     0
  1
0
  0
DICTIONARYVAR
  5
1E2
102
{ACAD_REACTORS
330
1C0
102
}
330
1C0
100
DictionaryVariables
280
     0
  1
127
  0
DICTIONARYVAR
  5
1E7
102
{ACAD_REACTORS
330
1C0
102
}
330
1C0
100
DictionaryVariables
280
     0
  1
2
  0
DICTIONARY
  5
1F2
330
1A
100
AcDbDictionary
280
     1
281
     1
  3
ACAD_XREC_ROUNDTRIP
360
1F3
  0
DICTIONARY
  5
1F0
330
15
100
AcDbDictionary
280
     1
281
     1
  3
ACAD_XREC_ROUNDTRIP
360
1F1
  0
DICTIONARY
  5
3E
330
3D
100
AcDbDictionary
280
     1
281
     1
  3
ACAD_XREC_ROUNDTRIP
360
1F7
  3
BUMPTILE
360
3F
  3
DIFFUSETILE
360
40
  3
OPACITYTILE
360
41
  3
REFLECTIONTILE
360
42
  3
REFRACTIONTILE
360
43
  3
SPECULARTILE
360
44
  0
DICTIONARY
  5
36
330
35
100
AcDbDictionary
280
     1
281
     1
  3
ACAD_XREC_ROUNDTRIP
360
1F6
  3
BUMPTILE
360
37
  3
DIFFUSETILE
360
38
  3
OPACITYTILE
360
39
  3
REFLECTIONTILE
360
3A
  3
REFRACTIONTILE
360
3B
  3
SPECULARTILE
360
3C
  0
DICTIONARY
  5
C
330
A
100
AcDbDictionary
280
     1
281
     1
  3
ACAD_XREC_ROUNDTRIP
360
1EF
  3
BUMPTILE
360
D
  3
DIFFUSETILE
360
E
  3
OPACITYTILE
360
F
  3
REFLECTIONTILE
360
10
  3
REFRACTIONTILE
360
11
  3
SPECULARTILE
360
12
  0
DICTIONARY
  5
4B
330
4A
100
AcDbDictionary
280
     1
281
     1
  3
ACAD_ROUNDTRIP_2008_TABLESTYLE_CELLSTYLEMAP
360
1E8
  3
ACAD_XREC_ROUNDTRIP
360
1F8
  0
DICTIONARY
  5
1F4
330
2A
100
AcDbDictionary
280
     1
281
     1
  3
ACAD_XREC_ROUNDTRIP
360
1F5
  0
DICTIONARY
  5
205
330
1CD
100
AcDbDictionary
280
     1
281
     1
  3
ACAD_XREC_ROUNDTRIP
360
206
  0
DICTIONARY
  5
20D
330
1D1
100
AcDbDictionary
280
     1
281
     1
  3
ACAD_XREC_ROUNDTRIP
360
20E
  0
DICTIONARY
  5
215
330
1D5
100
AcDbDictionary
280
     1
281
     1
  3
ACAD_XREC_ROUNDTRIP
360
216
  0
DICTIONARY
  5
209
330
1CF
100
AcDbDictionary
280
     1
281
     1
  3
ACAD_XREC_ROUNDTRIP
360
20A
  0
DICTIONARY
  5
20B
330
1D0
100
AcDbDictionary
280
     1
281
     1
  3
ACAD_XREC_ROUNDTRIP
360
20C
  0
DICTIONARY
  5
225
330
1DD
100
AcDbDictionary
280
     1
281
     1
  3
ACAD_XREC_ROUNDTRIP
360
226
  0
DICTIONARY
  5
213
330
1D4
100
AcDbDictionary
280
     1
281
     1
  3
ACAD_XREC_ROUNDTRIP
360
214
  0
DICTIONARY
  5
1FD
330
1C9
100
AcDbDictionary
280
     1
281
     1
  3
ACAD_XREC_ROUNDTRIP
360
1FE
  0
DICTIONARY
  5
1FF
330
1CA
100
AcDbDictionary
280
     1
281
     1
  3
ACAD_XREC_ROUNDTRIP
360
200
  0
DICTIONARY
  5
201
330
1CB
100
AcDbDictionary
280
     1
281
     1
  3
ACAD_XREC_ROUNDTRIP
360
202
  0
DICTIONARY
  5
203
330
1CC
100
AcDbDictionary
280
     1
281
     1
  3
ACAD_XREC_ROUNDTRIP
360
204
  0
DICTIONARY
  5
207
330
1CE
100
AcDbDictionary
280
     1
281
     1
  3
ACAD_XREC_ROUNDTRIP
360
208
  0
DICTIONARY
  5
221
330
1DB
100
AcDbDictionary
280
     1
281
     1
  3
ACAD_XREC_ROUNDTRIP
360
222
  0
DICTIONARY
  5
211
330
1D3
100
AcDbDictionary
280
     1
281
     1
  3
ACAD_XREC_ROUNDTRIP
360
212
  0
DICTIONARY
  5
223
330
1DC
100
AcDbDictionary
280
     1
281
     1
  3
ACAD_XREC_ROUNDTRIP
360
224
  0
DICTIONARY
  5
1F9
330
4C
100
AcDbDictionary
280
     1
281
     1
  3
ACAD_XREC_ROUNDTRIP
360
1FA
  0
DICTIONARY
  5
21F
330
1DA
100
AcDbDictionary
280
     1
281
     1
  3
ACAD_XREC_ROUNDTRIP
360
220
  0
DICTIONARY
  5
21D
330
1D9
100
AcDbDictionary
280
     1
281
     1
  3
ACAD_XREC_ROUNDTRIP
360
21E
  0
DICTIONARY
  5
217
330
1D6
100
AcDbDictionary
280
     1
281
     1
  3
ACAD_XREC_ROUNDTRIP
360
218
  0
DICTIONARY
  5
219
330
1D7
100
AcDbDictionary
280
     1
281
     1
  3
ACAD_XREC_ROUNDTRIP
360
21A
  0
DICTIONARY
  5
20F
330
1D2
100
AcDbDictionary
280
     1
281
     1
  3
ACAD_XREC_ROUNDTRIP
360
210
  0
DICTIONARY
  5
1FB
330
4D
100
AcDbDictionary
280
     1
281
     1
  3
ACAD_XREC_ROUNDTRIP
360
1FC
  0
DICTIONARY
  5
21B
330
1D8
100
AcDbDictionary
280
     1
281
     1
  3
ACAD_XREC_ROUNDTRIP
360
21C
  0
XRECORD
  5
1F3
102
{ACAD_REACTORS
330
1F2
102
}
330
1F2
100
AcDbXrecord
280
     1
102
SHADEPLOT
 70
     0
102
SHADEPLOTRESLEVEL
 70
     2
102
SHADEPLOTCUSTOMDPI
 70
   300
  0
XRECORD
  5
1F1
102
{ACAD_REACTORS
330
1F0
102
}
330
1F0
100
AcDbXrecord
280
     1
102
SHADEPLOT
 70
     0
102
SHADEPLOTRESLEVEL
 70
     2
102
SHADEPLOTCUSTOMDPI
 70
   300
  0
XRECORD
  5
1F7
102
{ACAD_REACTORS
330
3E
102
}
330
3E
100
AcDbXrecord
280
     1
102
MATERIAL
148
0.0
149
0.0
149
0.0
 93
        0
 94
      127
282
     0
 72
     0
 77
     0
171
     0
175
     0
179
     0
273
     0
  0
XRECORD
  5
3F
102
{ACAD_REACTORS
330
3E
102
}
330
3E
100
AcDbXrecord
280
     1
270
     1
271
     1
  0
XRECORD
  5
40
102
{ACAD_REACTORS
330
3E
102
}
330
3E
100
AcDbXrecord
280
     1
270
     1
271
     1
  0
XRECORD
  5
41
102
{ACAD_REACTORS
330
3E
102
}
330
3E
100
AcDbXrecord
280
     1
270
     1
271
     1
  0
XRECORD
  5
42
102
{ACAD_REACTORS
330
3E
102
}
330
3E
100
AcDbXrecord
280
     1
270
     1
271
     1
  0
XRECORD
  5
43
102
{ACAD_REACTORS
330
3E
102
}
330
3E
100
AcDbXrecord
280
     1
270
     1
271
     1
  0
XRECORD
  5
44
102
{ACAD_REACTORS
330
3E
102
}
330
3E
100
AcDbXrecord
280
     1
270
     1
271
     1
  0
XRECORD
  5
1F6
102
{ACAD_REACTORS
330
36
102
}
330
36
100
AcDbXrecord
280
     1
102
MATERIAL
148
0.0
149
0.0
149
0.0
 93
        0
 94
      127
282
     0
 72
     0
 77
     0
171
     0
175
     0
179
     0
273
     0
  0
XRECORD
  5
37
102
{ACAD_REACTORS
330
36
102
}
330
36
100
AcDbXrecord
280
     1
270
     1
271
     1
  0
XRECORD
  5
38
102
{ACAD_REACTORS
330
36
102
}
330
36
100
AcDbXrecord
280
     1
270
     1
271
     1
  0
XRECORD
  5
39
102
{ACAD_REACTORS
330
36
102
}
330
36
100
AcDbXrecord
280
     1
270
     1
271
     1
  0
XRECORD
  5
3A
102
{ACAD_REACTORS
330
36
102
}
330
36
100
AcDbXrecord
280
     1
270
     1
271
     1
  0
XRECORD
  5
3B
102
{ACAD_REACTORS
330
36
102
}
330
36
100
AcDbXrecord
280
     1
270
     1
271
     1
  0
XRECORD
  5
3C
102
{ACAD_REACTORS
330
36
102
}
330
36
100
AcDbXrecord
280
     1
270
     1
271
     1
  0
XRECORD
  5
1EF
102
{ACAD_REACTORS
330
C
102
}
330
C
100
AcDbXrecord
280
     1
102
MATERIAL
148
0.0
149
0.0
149
0.0
 93
        0
 94
      127
282
     0
 72
     0
 77
     0
171
     0
175
     0
179
     0
273
     0
  0
XRECORD
  5
D
102
{ACAD_REACTORS
330
C
102
}
330
C
100
AcDbXrecord
280
     1
270
     1
271
     1
  0
XRECORD
  5
E
102
{ACAD_REACTORS
330
C
102
}
330
C
100
AcDbXrecord
280
     1
270
     1
271
     1
  0
XRECORD
  5
F
102
{ACAD_REACTORS
330
C
102
}
330
C
100
AcDbXrecord
280
     1
270
     1
271
     1
  0
XRECORD
  5
10
102
{ACAD_REACTORS
330
C
102
}
330
C
100
AcDbXrecord
280
     1
270
     1
271
     1
  0
XRECORD
  5
11
102
{ACAD_REACTORS
330
C
102
}
330
C
100
AcDbXrecord
280
     1
270
     1
271
     1
  0
XRECORD
  5
12
102
{ACAD_REACTORS
330
C
102
}
330
C
100
AcDbXrecord
280
     1
270
     1
271
     1
  0
CELLSTYLEMAP
  5
1E8
102
{ACAD_REACTORS
330
4B
102
}
330
4B
100
AcDbCellStyleMap
 90
        3
300
CELLSTYLE
  1
TABLEFORMAT_BEGIN
 90
        5
170
     1
 91
        0
 92
    32768
 62
   257
 93
        1
300
CONTENTFORMAT
  1
CONTENTFORMAT_BEGIN
 90
        0
 91
        0
 92
      512
 93
        0
300

 40
0.0
140
1.0
 94
        5
 62
     0
340
21
144
0.25
309
CONTENTFORMAT_END
171
     0
 94
        0
309
TABLEFORMAT_END
  1
CELLSTYLE_BEGIN
 90
        1
 91
        1
300
_TITLE
309
CELLSTYLE_END
300
CELLSTYLE
  1
TABLEFORMAT_BEGIN
 90
        5
170
     1
 91
        0
 92
        0
 62
   257
 93
        1
300
CONTENTFORMAT
  1
CONTENTFORMAT_BEGIN
 90
        0
 91
        0
 92
      512
 93
        0
300

 40
0.0
140
1.0
 94
        5
 62
     0
340
21
144
0.18
309
CONTENTFORMAT_END
171
     0
 94
        0
309
TABLEFORMAT_END
  1
CELLSTYLE_BEGIN
 90
        2
 91
        1
300
_HEADER
309
CELLSTYLE_END
300
CELLSTYLE
  1
TABLEFORMAT_BEGIN
 90
        5
170
     1
 91
        0
 92
        0
 62
   257
 93
        1
300
CONTENTFORMAT
  1
CONTENTFORMAT_BEGIN
 90
        0
 91
        0
 92
      512
 93
        0
300

 40
0.0
140
1.0
 94
        2
 62
     0
340
21
144
0.18
309
CONTENTFORMAT_END
171
     0
 94
        0
309
TABLEFORMAT_END
  1
CELLSTYLE_BEGIN
 90
        3
 91
        2
300
_DATA
309
CELLSTYLE_END
  0
XRECORD
  5
1F8
102
{ACAD_REACTORS
330
4B
102
}
330
4B
100
AcDbXrecord
280
     1
102
ACAD_ROUNDTRIP_PRE2007_TABLESTYLE
 90
      512
 91
        0
  1

 92
      512
 93
        0
  2

 94
      512
 95
        0
  3

  0
XRECORD
  5
1F5
102
{ACAD_REACTORS
330
1F4
102
}
330
1F4
100
AcDbXrecord
280
     1
102
RTVSPropertyOp0
 70
     1
102
RTVSPropertyOp1
 70
     1
102
RTVSPropertyOp2
 70
     1
102
RTVSPropertyOp3
 70
     1
102
RTVSPropertyOp4
 70
     1
102
RTVSPropertyOp5
 70
     1
102
RTVSPropertyOp6
 70
     1
102
RTVSPropertyOp7
 70
     1
102
RTVSPropertyOp8
 70
     1
102
RTVSPropertyOp9
 70
     1
102
RTVSPropertyOp10
 70
     1
102
RTVSPropertyOp11
 70
     1
102
RTVSPropertyOp12
 70
     1
102
RTVSPropertyOp13
 70
     1
102
RTVSPropertyOp14
 70
     1
102
RTVSPropertyOp15
 70
     1
102
RTVSPropertyOp16
 70
     1
102
RTVSPropertyOp17
 70
     1
102
RTVSPropertyOp18
 70
     1
102
RTVSPropertyOp19
 70
     1
102
RTVSPropertyOp20
 70
     1
102
RTVSPropertyOp21
 70
     1
102
RTVSPropertyOp22
 70
     1
102
RTVSPropertyOp23
 70
     1
102
RTVSPropertyOp24
 70
     1
102
RTVSPropertyOp25
 70
     1
102
RTVSPropertyOp26
 70
     1
102
RTVSPropertyOp27
 70
     1
102
RTVSPropertyOp28
 70
     1
102
RTVSPropertyOp29
 70
     1
102
RTVSPropertyOp30
 70
     1
102
RTVSPropertyOp31
 70
     1
102
RTVSPropertyOp32
 70
     1
  0
XRECORD
  5
206
102
{ACAD_REACTORS
330
205
102
}
330
205
100
AcDbXrecord
280
     1
102
RTVSPropertyOp0
 70
     1
102
RTVSPropertyOp1
 70
     1
102
RTVSPropertyOp2
 70
     1
102
RTVSPropertyOp3
 70
     1
102
RTVSPropertyOp4
 70
     1
102
RTVSPropertyOp5
 70
     1
102
RTVSPropertyOp6
 70
     1
102
RTVSPropertyOp7
 70
     1
102
RTVSPropertyOp8
 70
     1
102
RTVSPropertyOp9
 70
     1
102
RTVSPropertyOp10
 70
     1
102
RTVSPropertyOp11
 70
     1
102
RTVSPropertyOp12
 70
     1
102
RTVSPropertyOp13
 70
     1
102
RTVSPropertyOp14
 70
     1
102
RTVSPropertyOp15
 70
     1
102
RTVSPropertyOp16
 70
     1
102
RTVSPropertyOp17
 70
     1
102
RTVSPropertyOp18
 70
     1
102
RTVSPropertyOp19
 70
     1
102
RTVSPropertyOp20
 70
     1
102
RTVSPropertyOp21
 70
     1
102
RTVSPropertyOp22
 70
     1
102
RTVSPropertyOp23
 70
     1
102
RTVSPropertyOp24
 70
     1
102
RTVSPropertyOp25
 70
     1
102
RTVSPropertyOp26
 70
     1
102
RTVSPropertyOp27
 70
     1
102
RTVSPropertyOp28
 70
     1
102
RTVSPropertyOp29
 70
     1
102
RTVSPropertyOp30
 70
     1
102
RTVSPropertyOp31
 70
     1
102
RTVSPropertyOp32
 70
     1
  0
XRECORD
  5
20E
102
{ACAD_REACTORS
330
20D
102
}
330
20D
100
AcDbXrecord
280
     1
102
RTVSPropertyOp0
 70
     1
102
RTVSPropertyOp1
 70
     1
102
RTVSPropertyOp2
 70
     1
102
RTVSPropertyOp3
 70
     1
102
RTVSPropertyOp4
 70
     1
102
RTVSPropertyOp5
 70
     1
102
RTVSPropertyOp6
 70
     1
102
RTVSPropertyOp7
 70
     1
102
RTVSPropertyOp8
 70
     1
102
RTVSPropertyOp9
 70
     1
102
RTVSPropertyOp10
 70
     1
102
RTVSPropertyOp11
 70
     1
102
RTVSPropertyOp12
 70
     1
102
RTVSPropertyOp13
 70
     1
102
RTVSPropertyOp14
 70
     1
102
RTVSPropertyOp15
 70
     1
102
RTVSPropertyOp16
 70
     1
102
RTVSPropertyOp17
 70
     1
102
RTVSPropertyOp18
 70
     1
102
RTVSPropertyOp19
 70
     1
102
RTVSPropertyOp20
 70
     1
102
RTVSPropertyOp21
 70
     1
102
RTVSPropertyOp22
 70
     1
102
RTVSPropertyOp23
 70
     1
102
RTVSPropertyOp24
 70
     1
102
RTVSPropertyOp25
 70
     1
102
RTVSPropertyOp26
 70
     1
102
RTVSPropertyOp27
 70
     1
102
RTVSPropertyOp28
 70
     1
102
RTVSPropertyOp29
 70
     1
102
RTVSPropertyOp30
 70
     1
102
RTVSPropertyOp31
 70
     1
102
RTVSPropertyOp32
 70
     1
  0
XRECORD
  5
216
102
{ACAD_REACTORS
330
215
102
}
330
215
100
AcDbXrecord
280
     1
102
RTVSPropertyOp0
 70
     1
102
RTVSPropertyOp1
 70
     1
102
RTVSPropertyOp2
 70
     1
102
RTVSPropertyOp3
 70
     1
102
RTVSPropertyOp4
 70
     1
102
RTVSPropertyOp5
 70
     1
102
RTVSPropertyOp6
 70
     1
102
RTVSPropertyOp7
 70
     1
102
RTVSPropertyOp8
 70
     1
102
RTVSPropertyOp9
 70
     1
102
RTVSPropertyOp10
 70
     1
102
RTVSPropertyOp11
 70
     1
102
RTVSPropertyOp12
 70
     1
102
RTVSPropertyOp13
 70
     1
102
RTVSPropertyOp14
 70
     1
102
RTVSPropertyOp15
 70
     1
102
RTVSPropertyOp16
 70
     1
102
RTVSPropertyOp17
 70
     1
102
RTVSPropertyOp18
 70
     1
102
RTVSPropertyOp19
 70
     1
102
RTVSPropertyOp20
 70
     1
102
RTVSPropertyOp21
 70
     1
102
RTVSPropertyOp22
 70
     1
102
RTVSPropertyOp23
 70
     1
102
RTVSPropertyOp24
 70
     1
102
RTVSPropertyOp25
 70
     1
102
RTVSPropertyOp26
 70
     1
102
RTVSPropertyOp27
 70
     1
102
RTVSPropertyOp28
 70
     1
102
RTVSPropertyOp29
 70
     1
102
RTVSPropertyOp30
 70
     1
102
RTVSPropertyOp31
 70
     1
102
RTVSPropertyOp32
 70
     1
  0
XRECORD
  5
20A
102
{ACAD_REACTORS
330
209
102
}
330
209
100
AcDbXrecord
280
     1
102
RTVSPropertyOp0
 70
     1
102
RTVSPropertyOp1
 70
     1
102
RTVSPropertyOp2
 70
     1
102
RTVSPropertyOp3
 70
     1
102
RTVSPropertyOp4
 70
     1
102
RTVSPropertyOp5
 70
     1
102
RTVSPropertyOp6
 70
     1
102
RTVSPropertyOp7
 70
     1
102
RTVSPropertyOp8
 70
     1
102
RTVSPropertyOp9
 70
     1
102
RTVSPropertyOp10
 70
     1
102
RTVSPropertyOp11
 70
     1
102
RTVSPropertyOp12
 70
     1
102
RTVSPropertyOp13
 70
     1
102
RTVSPropertyOp14
 70
     1
102
RTVSPropertyOp15
 70
     1
102
RTVSPropertyOp16
 70
     1
102
RTVSPropertyOp17
 70
     1
102
RTVSPropertyOp18
 70
     1
102
RTVSPropertyOp19
 70
     1
102
RTVSPropertyOp20
 70
     1
102
RTVSPropertyOp21
 70
     1
102
RTVSPropertyOp22
 70
     1
102
RTVSPropertyOp23
 70
     1
102
RTVSPropertyOp24
 70
     1
102
RTVSPropertyOp25
 70
     1
102
RTVSPropertyOp26
 70
     1
102
RTVSPropertyOp27
 70
     1
102
RTVSPropertyOp28
 70
     1
102
RTVSPropertyOp29
 70
     1
102
RTVSPropertyOp30
 70
     1
102
RTVSPropertyOp31
 70
     1
102
RTVSPropertyOp32
 70
     1
  0
XRECORD
  5
20C
102
{ACAD_REACTORS
330
20B
102
}
330
20B
100
AcDbXrecord
280
     1
102
RTVSPropertyOp0
 70
     1
102
RTVSPropertyOp1
 70
     1
102
RTVSPropertyOp2
 70
     1
102
RTVSPropertyOp3
 70
     1
102
RTVSPropertyOp4
 70
     1
102
RTVSPropertyOp5
 70
     1
102
RTVSPropertyOp6
 70
     1
102
RTVSPropertyOp7
 70
     1
102
RTVSPropertyOp8
 70
     1
102
RTVSPropertyOp9
 70
     1
102
RTVSPropertyOp10
 70
     1
102
RTVSPropertyOp11
 70
     1
102
RTVSPropertyOp12
 70
     1
102
RTVSPropertyOp13
 70
     1
102
RTVSPropertyOp14
 70
     1
102
RTVSPropertyOp15
 70
     1
102
RTVSPropertyOp16
 70
     1
102
RTVSPropertyOp17
 70
     1
102
RTVSPropertyOp18
 70
     1
102
RTVSPropertyOp19
 70
     1
102
RTVSPropertyOp20
 70
     1
102
RTVSPropertyOp21
 70
     1
102
RTVSPropertyOp22
 70
     1
102
RTVSPropertyOp23
 70
     1
102
RTVSPropertyOp24
 70
     1
102
RTVSPropertyOp25
 70
     1
102
RTVSPropertyOp26
 70
     1
102
RTVSPropertyOp27
 70
     1
102
RTVSPropertyOp28
 70
     1
102
RTVSPropertyOp29
 70
     1
102
RTVSPropertyOp30
 70
     1
102
RTVSPropertyOp31
 70
     1
102
RTVSPropertyOp32
 70
     1
  0
XRECORD
  5
226
102
{ACAD_REACTORS
330
225
102
}
330
225
100
AcDbXrecord
280
     1
102
RTVSPropertyOp0
 70
     0
102
RTVSPropertyOp1
 70
     0
102
RTVSPropertyOp2
 70
     0
102
RTVSPropertyOp3
 70
     0
102
RTVSPropertyOp4
 70
     0
102
RTVSPropertyOp5
 70
     0
102
RTVSPropertyOp6
 70
     0
102
RTVSPropertyOp7
 70
     0
102
RTVSPropertyOp8
 70
     0
102
RTVSPropertyOp9
 70
     0
102
RTVSPropertyOp10
 70
     0
102
RTVSPropertyOp11
 70
     0
102
RTVSPropertyOp12
 70
     0
102
RTVSPropertyOp13
 70
     0
102
RTVSPropertyOp14
 70
     2
102
RTVSPropertyOp15
 70
     0
102
RTVSPropertyOp16
 70
     0
102
RTVSPropertyOp17
 70
     0
102
RTVSPropertyOp18
 70
     0
102
RTVSPropertyOp19
 70
     0
102
RTVSPropertyOp20
 70
     0
102
RTVSPropertyOp21
 70
     0
102
RTVSPropertyOp22
 70
     0
102
RTVSPropertyOp23
 70
     0
102
RTVSPropertyOp24
 70
     0
102
RTVSPropertyOp25
 70
     0
102
RTVSPropertyOp26
 70
     0
102
RTVSPropertyOp27
 70
     0
102
RTVSPropertyOp28
 70
     0
102
RTVSPropertyOp29
 70
     0
102
RTVSPropertyOp30
 70
     0
102
RTVSPropertyOp31
 70
     0
102
RTVSPropertyOp32
 70
     0
  0
XRECORD
  5
214
102
{ACAD_REACTORS
330
213
102
}
330
213
100
AcDbXrecord
280
     1
102
RTVSPropertyOp0
 70
     1
102
RTVSPropertyOp1
 70
     1
102
RTVSPropertyOp2
 70
     1
102
RTVSPropertyOp3
 70
     1
102
RTVSPropertyOp4
 70
     1
102
RTVSPropertyOp5
 70
     1
102
RTVSPropertyOp6
 70
     1
102
RTVSPropertyOp7
 70
     1
102
RTVSPropertyOp8
 70
     1
102
RTVSPropertyOp9
 70
     1
102
RTVSPropertyOp10
 70
     1
102
RTVSPropertyOp11
 70
     1
102
RTVSPropertyOp12
 70
     1
102
RTVSPropertyOp13
 70
     1
102
RTVSPropertyOp14
 70
     1
102
RTVSPropertyOp15
 70
     1
102
RTVSPropertyOp16
 70
     1
102
RTVSPropertyOp17
 70
     1
102
RTVSPropertyOp18
 70
     1
102
RTVSPropertyOp19
 70
     1
102
RTVSPropertyOp20
 70
     1
102
RTVSPropertyOp21
 70
     1
102
RTVSPropertyOp22
 70
     1
102
RTVSPropertyOp23
 70
     1
102
RTVSPropertyOp24
 70
     1
102
RTVSPropertyOp25
 70
     1
102
RTVSPropertyOp26
 70
     1
102
RTVSPropertyOp27
 70
     1
102
RTVSPropertyOp28
 70
     1
102
RTVSPropertyOp29
 70
     1
102
RTVSPropertyOp30
 70
     1
102
RTVSPropertyOp31
 70
     1
102
RTVSPropertyOp32
 70
     1
  0
XRECORD
  5
1FE
102
{ACAD_REACTORS
330
1FD
102
}
330
1FD
100
AcDbXrecord
280
     1
102
RTVSPropertyOp0
 70
     1
102
RTVSPropertyOp1
 70
     1
102
RTVSPropertyOp2
 70
     1
102
RTVSPropertyOp3
 70
     1
102
RTVSPropertyOp4
 70
     1
102
RTVSPropertyOp5
 70
     1
102
RTVSPropertyOp6
 70
     1
102
RTVSPropertyOp7
 70
     1
102
RTVSPropertyOp8
 70
     1
102
RTVSPropertyOp9
 70
     1
102
RTVSPropertyOp10
 70
     1
102
RTVSPropertyOp11
 70
     1
102
RTVSPropertyOp12
 70
     1
102
RTVSPropertyOp13
 70
     1
102
RTVSPropertyOp14
 70
     1
102
RTVSPropertyOp15
 70
     1
102
RTVSPropertyOp16
 70
     1
102
RTVSPropertyOp17
 70
     1
102
RTVSPropertyOp18
 70
     1
102
RTVSPropertyOp19
 70
     1
102
RTVSPropertyOp20
 70
     1
102
RTVSPropertyOp21
 70
     1
102
RTVSPropertyOp22
 70
     1
102
RTVSPropertyOp23
 70
     1
102
RTVSPropertyOp24
 70
     1
102
RTVSPropertyOp25
 70
     1
102
RTVSPropertyOp26
 70
     1
102
RTVSPropertyOp27
 70
     1
102
RTVSPropertyOp28
 70
     1
102
RTVSPropertyOp29
 70
     1
102
RTVSPropertyOp30
 70
     1
102
RTVSPropertyOp31
 70
     1
102
RTVSPropertyOp32
 70
     1
  0
XRECORD
  5
200
102
{ACAD_REACTORS
330
1FF
102
}
330
1FF
100
AcDbXrecord
280
     1
102
RTVSPropertyOp0
 70
     1
102
RTVSPropertyOp1
 70
     1
102
RTVSPropertyOp2
 70
     1
102
RTVSPropertyOp3
 70
     1
102
RTVSPropertyOp4
 70
     1
102
RTVSPropertyOp5
 70
     1
102
RTVSPropertyOp6
 70
     1
102
RTVSPropertyOp7
 70
     1
102
RTVSPropertyOp8
 70
     1
102
RTVSPropertyOp9
 70
     1
102
RTVSPropertyOp10
 70
     1
102
RTVSPropertyOp11
 70
     1
102
RTVSPropertyOp12
 70
     1
102
RTVSPropertyOp13
 70
     1
102
RTVSPropertyOp14
 70
     1
102
RTVSPropertyOp15
 70
     1
102
RTVSPropertyOp16
 70
     1
102
RTVSPropertyOp17
 70
     1
102
RTVSPropertyOp18
 70
     1
102
RTVSPropertyOp19
 70
     1
102
RTVSPropertyOp20
 70
     1
102
RTVSPropertyOp21
 70
     1
102
RTVSPropertyOp22
 70
     1
102
RTVSPropertyOp23
 70
     1
102
RTVSPropertyOp24
 70
     1
102
RTVSPropertyOp25
 70
     1
102
RTVSPropertyOp26
 70
     1
102
RTVSPropertyOp27
 70
     1
102
RTVSPropertyOp28
 70
     1
102
RTVSPropertyOp29
 70
     1
102
RTVSPropertyOp30
 70
     1
102
RTVSPropertyOp31
 70
     1
102
RTVSPropertyOp32
 70
     1
  0
XRECORD
  5
202
102
{ACAD_REACTORS
330
201
102
}
330
201
100
AcDbXrecord
280
     1
102
RTVSPropertyOp0
 70
     1
102
RTVSPropertyOp1
 70
     1
102
RTVSPropertyOp2
 70
     1
102
RTVSPropertyOp3
 70
     1
102
RTVSPropertyOp4
 70
     1
102
RTVSPropertyOp5
 70
     1
102
RTVSPropertyOp6
 70
     1
102
RTVSPropertyOp7
 70
     1
102
RTVSPropertyOp8
 70
     1
102
RTVSPropertyOp9
 70
     1
102
RTVSPropertyOp10
 70
     1
102
RTVSPropertyOp11
 70
     1
102
RTVSPropertyOp12
 70
     1
102
RTVSPropertyOp13
 70
     1
102
RTVSPropertyOp14
 70
     1
102
RTVSPropertyOp15
 70
     1
102
RTVSPropertyOp16
 70
     1
102
RTVSPropertyOp17
 70
     1
102
RTVSPropertyOp18
 70
     1
102
RTVSPropertyOp19
 70
     1
102
RTVSPropertyOp20
 70
     1
102
RTVSPropertyOp21
 70
     1
102
RTVSPropertyOp22
 70
     1
102
RTVSPropertyOp23
 70
     1
102
RTVSPropertyOp24
 70
     1
102
RTVSPropertyOp25
 70
     1
102
RTVSPropertyOp26
 70
     1
102
RTVSPropertyOp27
 70
     1
102
RTVSPropertyOp28
 70
     1
102
RTVSPropertyOp29
 70
     1
102
RTVSPropertyOp30
 70
     1
102
RTVSPropertyOp31
 70
     1
102
RTVSPropertyOp32
 70
     1
  0
XRECORD
  5
204
102
{ACAD_REACTORS
330
203
102
}
330
203
100
AcDbXrecord
280
     1
102
RTVSPropertyOp0
 70
     1
102
RTVSPropertyOp1
 70
     1
102
RTVSPropertyOp2
 70
     1
102
RTVSPropertyOp3
 70
     1
102
RTVSPropertyOp4
 70
     1
102
RTVSPropertyOp5
 70
     1
102
RTVSPropertyOp6
 70
     1
102
RTVSPropertyOp7
 70
     1
102
RTVSPropertyOp8
 70
     1
102
RTVSPropertyOp9
 70
     1
102
RTVSPropertyOp10
 70
     1
102
RTVSPropertyOp11
 70
     1
102
RTVSPropertyOp12
 70
     1
102
RTVSPropertyOp13
 70
     1
102
RTVSPropertyOp14
 70
     1
102
RTVSPropertyOp15
 70
     1
102
RTVSPropertyOp16
 70
     1
102
RTVSPropertyOp17
 70
     1
102
RTVSPropertyOp18
 70
     1
102
RTVSPropertyOp19
 70
     1
102
RTVSPropertyOp20
 70
     1
102
RTVSPropertyOp21
 70
     1
102
RTVSPropertyOp22
 70
     1
102
RTVSPropertyOp23
 70
     1
102
RTVSPropertyOp24
 70
     1
102
RTVSPropertyOp25
 70
     1
102
RTVSPropertyOp26
 70
     1
102
RTVSPropertyOp27
 70
     1
102
RTVSPropertyOp28
 70
     1
102
RTVSPropertyOp29
 70
     1
102
RTVSPropertyOp30
 70
     1
102
RTVSPropertyOp31
 70
     1
102
RTVSPropertyOp32
 70
     1
  0
XRECORD
  5
208
102
{ACAD_REACTORS
330
207
102
}
330
207
100
AcDbXrecord
280
     1
102
RTVSPropertyOp0
 70
     1
102
RTVSPropertyOp1
 70
     1
102
RTVSPropertyOp2
 70
     1
102
RTVSPropertyOp3
 70
     1
102
RTVSPropertyOp4
 70
     1
102
RTVSPropertyOp5
 70
     1
102
RTVSPropertyOp6
 70
     1
102
RTVSPropertyOp7
 70
     1
102
RTVSPropertyOp8
 70
     1
102
RTVSPropertyOp9
 70
     1
102
RTVSPropertyOp10
 70
     1
102
RTVSPropertyOp11
 70
     1
102
RTVSPropertyOp12
 70
     1
102
RTVSPropertyOp13
 70
     1
102
RTVSPropertyOp14
 70
     1
102
RTVSPropertyOp15
 70
     1
102
RTVSPropertyOp16
 70
     1
102
RTVSPropertyOp17
 70
     1
102
RTVSPropertyOp18
 70
     1
102
RTVSPropertyOp19
 70
     1
102
RTVSPropertyOp20
 70
     1
102
RTVSPropertyOp21
 70
     1
102
RTVSPropertyOp22
 70
     1
102
RTVSPropertyOp23
 70
     1
102
RTVSPropertyOp24
 70
     1
102
RTVSPropertyOp25
 70
     1
102
RTVSPropertyOp26
 70
     1
102
RTVSPropertyOp27
 70
     1
102
RTVSPropertyOp28
 70
     1
102
RTVSPropertyOp29
 70
     1
102
RTVSPropertyOp30
 70
     1
102
RTVSPropertyOp31
 70
     1
102
RTVSPropertyOp32
 70
     1
  0
XRECORD
  5
222
102
{ACAD_REACTORS
330
221
102
}
330
221
100
AcDbXrecord
280
     1
102
RTVSPropertyOp0
 70
     0
102
RTVSPropertyOp1
 70
     0
102
RTVSPropertyOp2
 70
     0
102
RTVSPropertyOp3
 70
     0
102
RTVSPropertyOp4
 70
     0
102
RTVSPropertyOp5
 70
     0
102
RTVSPropertyOp6
 70
     0
102
RTVSPropertyOp7
 70
     0
102
RTVSPropertyOp8
 70
     0
102
RTVSPropertyOp9
 70
     0
102
RTVSPropertyOp10
 70
     0
102
RTVSPropertyOp11
 70
     0
102
RTVSPropertyOp12
 70
     0
102
RTVSPropertyOp13
 70
     0
102
RTVSPropertyOp14
 70
     2
102
RTVSPropertyOp15
 70
     0
102
RTVSPropertyOp16
 70
     0
102
RTVSPropertyOp17
 70
     0
102
RTVSPropertyOp18
 70
     0
102
RTVSPropertyOp19
 70
     0
102
RTVSPropertyOp20
 70
     0
102
RTVSPropertyOp21
 70
     0
102
RTVSPropertyOp22
 70
     0
102
RTVSPropertyOp23
 70
     0
102
RTVSPropertyOp24
 70
     0
102
RTVSPropertyOp25
 70
     0
102
RTVSPropertyOp26
 70
     0
102
RTVSPropertyOp27
 70
     0
102
RTVSPropertyOp28
 70
     0
102
RTVSPropertyOp29
 70
     0
102
RTVSPropertyOp30
 70
     0
102
RTVSPropertyOp31
 70
     0
102
RTVSPropertyOp32
 70
     0
  0
XRECORD
  5
212
102
{ACAD_REACTORS
330
211
102
}
330
211
100
AcDbXrecord
280
     1
102
RTVSPropertyOp0
 70
     1
102
RTVSPropertyOp1
 70
     1
102
RTVSPropertyOp2
 70
     1
102
RTVSPropertyOp3
 70
     1
102
RTVSPropertyOp4
 70
     1
102
RTVSPropertyOp5
 70
     1
102
RTVSPropertyOp6
 70
     1
102
RTVSPropertyOp7
 70
     1
102
RTVSPropertyOp8
 70
     1
102
RTVSPropertyOp9
 70
     1
102
RTVSPropertyOp10
 70
     1
102
RTVSPropertyOp11
 70
     1
102
RTVSPropertyOp12
 70
     1
102
RTVSPropertyOp13
 70
     1
102
RTVSPropertyOp14
 70
     1
102
RTVSPropertyOp15
 70
     1
102
RTVSPropertyOp16
 70
     1
102
RTVSPropertyOp17
 70
     1
102
RTVSPropertyOp18
 70
     1
102
RTVSPropertyOp19
 70
     1
102
RTVSPropertyOp20
 70
     1
102
RTVSPropertyOp21
 70
     1
102
RTVSPropertyOp22
 70
     1
102
RTVSPropertyOp23
 70
     1
102
RTVSPropertyOp24
 70
     1
102
RTVSPropertyOp25
 70
     1
102
RTVSPropertyOp26
 70
     1
102
RTVSPropertyOp27
 70
     1
102
RTVSPropertyOp28
 70
     1
102
RTVSPropertyOp29
 70
     1
102
RTVSPropertyOp30
 70
     1
102
RTVSPropertyOp31
 70
     1
102
RTVSPropertyOp32
 70
     1
  0
XRECORD
  5
224
102
{ACAD_REACTORS
330
223
102
}
330
223
100
AcDbXrecord
280
     1
102
RTVSPropertyOp0
 70
     0
102
RTVSPropertyOp1
 70
     0
102
RTVSPropertyOp2
 70
     0
102
RTVSPropertyOp3
 70
     0
102
RTVSPropertyOp4
 70
     0
102
RTVSPropertyOp5
 70
     0
102
RTVSPropertyOp6
 70
     0
102
RTVSPropertyOp7
 70
     0
102
RTVSPropertyOp8
 70
     0
102
RTVSPropertyOp9
 70
     0
102
RTVSPropertyOp10
 70
     0
102
RTVSPropertyOp11
 70
     0
102
RTVSPropertyOp12
 70
     0
102
RTVSPropertyOp13
 70
     0
102
RTVSPropertyOp14
 70
     2
102
RTVSPropertyOp15
 70
     0
102
RTVSPropertyOp16
 70
     0
102
RTVSPropertyOp17
 70
     0
102
RTVSPropertyOp18
 70
     0
102
RTVSPropertyOp19
 70
     0
102
RTVSPropertyOp20
 70
     0
102
RTVSPropertyOp21
 70
     0
102
RTVSPropertyOp22
 70
     0
102
RTVSPropertyOp23
 70
     0
102
RTVSPropertyOp24
 70
     0
102
RTVSPropertyOp25
 70
     0
102
RTVSPropertyOp26
 70
     0
102
RTVSPropertyOp27
 70
     0
102
RTVSPropertyOp28
 70
     0
102
RTVSPropertyOp29
 70
     0
102
RTVSPropertyOp30
 70
     0
102
RTVSPropertyOp31
 70
     0
102
RTVSPropertyOp32
 70
     0
  0
XRECORD
  5
1FA
102
{ACAD_REACTORS
330
1F9
102
}
330
1F9
100
AcDbXrecord
280
     1
102
RTVSPropertyOp0
 70
     1
102
RTVSPropertyOp1
 70
     1
102
RTVSPropertyOp2
 70
     1
102
RTVSPropertyOp3
 70
     1
102
RTVSPropertyOp4
 70
     1
102
RTVSPropertyOp5
 70
     1
102
RTVSPropertyOp6
 70
     1
102
RTVSPropertyOp7
 70
     1
102
RTVSPropertyOp8
 70
     1
102
RTVSPropertyOp9
 70
     1
102
RTVSPropertyOp10
 70
     1
102
RTVSPropertyOp11
 70
     1
102
RTVSPropertyOp12
 70
     1
102
RTVSPropertyOp13
 70
     1
102
RTVSPropertyOp14
 70
     1
102
RTVSPropertyOp15
 70
     1
102
RTVSPropertyOp16
 70
     1
102
RTVSPropertyOp17
 70
     1
102
RTVSPropertyOp18
 70
     1
102
RTVSPropertyOp19
 70
     1
102
RTVSPropertyOp20
 70
     1
102
RTVSPropertyOp21
 70
     1
102
RTVSPropertyOp22
 70
     1
102
RTVSPropertyOp23
 70
     1
102
RTVSPropertyOp24
 70
     1
102
RTVSPropertyOp25
 70
     1
102
RTVSPropertyOp26
 70
     1
102
RTVSPropertyOp27
 70
     1
102
RTVSPropertyOp28
 70
     1
102
RTVSPropertyOp29
 70
     1
102
RTVSPropertyOp30
 70
     1
102
RTVSPropertyOp31
 70
     1
102
RTVSPropertyOp32
 70
     1
  0
XRECORD
  5
220
102
{ACAD_REACTORS
330
21F
102
}
330
21F
100
AcDbXrecord
280
     1
102
RTVSPropertyOp0
 70
     1
102
RTVSPropertyOp1
 70
     1
102
RTVSPropertyOp2
 70
     1
102
RTVSPropertyOp3
 70
     1
102
RTVSPropertyOp4
 70
     1
102
RTVSPropertyOp5
 70
     1
102
RTVSPropertyOp6
 70
     1
102
RTVSPropertyOp7
 70
     1
102
RTVSPropertyOp8
 70
     1
102
RTVSPropertyOp9
 70
     1
102
RTVSPropertyOp10
 70
     1
102
RTVSPropertyOp11
 70
     1
102
RTVSPropertyOp12
 70
     1
102
RTVSPropertyOp13
 70
     1
102
RTVSPropertyOp14
 70
     1
102
RTVSPropertyOp15
 70
     1
102
RTVSPropertyOp16
 70
     1
102
RTVSPropertyOp17
 70
     1
102
RTVSPropertyOp18
 70
     1
102
RTVSPropertyOp19
 70
     1
102
RTVSPropertyOp20
 70
     1
102
RTVSPropertyOp21
 70
     1
102
RTVSPropertyOp22
 70
     1
102
RTVSPropertyOp23
 70
     1
102
RTVSPropertyOp24
 70
     1
102
RTVSPropertyOp25
 70
     1
102
RTVSPropertyOp26
 70
     1
102
RTVSPropertyOp27
 70
     1
102
RTVSPropertyOp28
 70
     1
102
RTVSPropertyOp29
 70
     1
102
RTVSPropertyOp30
 70
     1
102
RTVSPropertyOp31
 70
     1
102
RTVSPropertyOp32
 70
     1
  0
XRECORD
  5
21E
102
{ACAD_REACTORS
330
21D
102
}
330
21D
100
AcDbXrecord
280
     1
102
RTVSPropertyOp0
 70
     1
102
RTVSPropertyOp1
 70
     1
102
RTVSPropertyOp2
 70
     1
102
RTVSPropertyOp3
 70
     1
102
RTVSPropertyOp4
 70
     1
102
RTVSPropertyOp5
 70
     1
102
RTVSPropertyOp6
 70
     1
102
RTVSPropertyOp7
 70
     1
102
RTVSPropertyOp8
 70
     1
102
RTVSPropertyOp9
 70
     1
102
RTVSPropertyOp10
 70
     1
102
RTVSPropertyOp11
 70
     1
102
RTVSPropertyOp12
 70
     1
102
RTVSPropertyOp13
 70
     1
102
RTVSPropertyOp14
 70
     1
102
RTVSPropertyOp15
 70
     1
102
RTVSPropertyOp16
 70
     1
102
RTVSPropertyOp17
 70
     1
102
RTVSPropertyOp18
 70
     1
102
RTVSPropertyOp19
 70
     1
102
RTVSPropertyOp20
 70
     1
102
RTVSPropertyOp21
 70
     1
102
RTVSPropertyOp22
 70
     1
102
RTVSPropertyOp23
 70
     1
102
RTVSPropertyOp24
 70
     1
102
RTVSPropertyOp25
 70
     1
102
RTVSPropertyOp26
 70
     1
102
RTVSPropertyOp27
 70
     1
102
RTVSPropertyOp28
 70
     1
102
RTVSPropertyOp29
 70
     1
102
RTVSPropertyOp30
 70
     1
102
RTVSPropertyOp31
 70
     1
102
RTVSPropertyOp32
 70
     1
  0
XRECORD
  5
218
102
{ACAD_REACTORS
330
217
102
}
330
217
100
AcDbXrecord
280
     1
102
RTVSPropertyOp0
 70
     1
102
RTVSPropertyOp1
 70
     1
102
RTVSPropertyOp2
 70
     1
102
RTVSPropertyOp3
 70
     1
102
RTVSPropertyOp4
 70
     1
102
RTVSPropertyOp5
 70
     1
102
RTVSPropertyOp6
 70
     1
102
RTVSPropertyOp7
 70
     1
102
RTVSPropertyOp8
 70
     1
102
RTVSPropertyOp9
 70
     1
102
RTVSPropertyOp10
 70
     1
102
RTVSPropertyOp11
 70
     1
102
RTVSPropertyOp12
 70
     1
102
RTVSPropertyOp13
 70
     1
102
RTVSPropertyOp14
 70
     1
102
RTVSPropertyOp15
 70
     1
102
RTVSPropertyOp16
 70
     1
102
RTVSPropertyOp17
 70
     1
102
RTVSPropertyOp18
 70
     1
102
RTVSPropertyOp19
 70
     1
102
RTVSPropertyOp20
 70
     1
102
RTVSPropertyOp21
 70
     1
102
RTVSPropertyOp22
 70
     1
102
RTVSPropertyOp23
 70
     1
102
RTVSPropertyOp24
 70
     1
102
RTVSPropertyOp25
 70
     1
102
RTVSPropertyOp26
 70
     1
102
RTVSPropertyOp27
 70
     1
102
RTVSPropertyOp28
 70
     1
102
RTVSPropertyOp29
 70
     1
102
RTVSPropertyOp30
 70
     1
102
RTVSPropertyOp31
 70
     1
102
RTVSPropertyOp32
 70
     1
  0
XRECORD
  5
21A
102
{ACAD_REACTORS
330
219
102
}
330
219
100
AcDbXrecord
280
     1
102
RTVSPropertyOp0
 70
     1
102
RTVSPropertyOp1
 70
     1
102
RTVSPropertyOp2
 70
     1
102
RTVSPropertyOp3
 70
     1
102
RTVSPropertyOp4
 70
     1
102
RTVSPropertyOp5
 70
     1
102
RTVSPropertyOp6
 70
     1
102
RTVSPropertyOp7
 70
     1
102
RTVSPropertyOp8
 70
     1
102
RTVSPropertyOp9
 70
     1
102
RTVSPropertyOp10
 70
     1
102
RTVSPropertyOp11
 70
     1
102
RTVSPropertyOp12
 70
     1
102
RTVSPropertyOp13
 70
     1
102
RTVSPropertyOp14
 70
     1
102
RTVSPropertyOp15
 70
     1
102
RTVSPropertyOp16
 70
     1
102
RTVSPropertyOp17
 70
     1
102
RTVSPropertyOp18
 70
     1
102
RTVSPropertyOp19
 70
     1
102
RTVSPropertyOp20
 70
     1
102
RTVSPropertyOp21
 70
     1
102
RTVSPropertyOp22
 70
     1
102
RTVSPropertyOp23
 70
     1
102
RTVSPropertyOp24
 70
     1
102
RTVSPropertyOp25
 70
     1
102
RTVSPropertyOp26
 70
     1
102
RTVSPropertyOp27
 70
     1
102
RTVSPropertyOp28
 70
     1
102
RTVSPropertyOp29
 70
     1
102
RTVSPropertyOp30
 70
     1
102
RTVSPropertyOp31
 70
     1
102
RTVSPropertyOp32
 70
     1
  0
XRECORD
  5
210
102
{ACAD_REACTORS
330
20F
102
}
330
20F
100
AcDbXrecord
280
     1
102
RTVSPropertyOp0
 70
     1
102
RTVSPropertyOp1
 70
     1
102
RTVSPropertyOp2
 70
     1
102
RTVSPropertyOp3
 70
     1
102
RTVSPropertyOp4
 70
     1
102
RTVSPropertyOp5
 70
     1
102
RTVSPropertyOp6
 70
     1
102
RTVSPropertyOp7
 70
     1
102
RTVSPropertyOp8
 70
     1
102
RTVSPropertyOp9
 70
     1
102
RTVSPropertyOp10
 70
     1
102
RTVSPropertyOp11
 70
     1
102
RTVSPropertyOp12
 70
     1
102
RTVSPropertyOp13
 70
     1
102
RTVSPropertyOp14
 70
     1
102
RTVSPropertyOp15
 70
     1
102
RTVSPropertyOp16
 70
     1
102
RTVSPropertyOp17
 70
     1
102
RTVSPropertyOp18
 70
     1
102
RTVSPropertyOp19
 70
     1
102
RTVSPropertyOp20
 70
     1
102
RTVSPropertyOp21
 70
     1
102
RTVSPropertyOp22
 70
     1
102
RTVSPropertyOp23
 70
     1
102
RTVSPropertyOp24
 70
     1
102
RTVSPropertyOp25
 70
     1
102
RTVSPropertyOp26
 70
     1
102
RTVSPropertyOp27
 70
     1
102
RTVSPropertyOp28
 70
     1
102
RTVSPropertyOp29
 70
     1
102
RTVSPropertyOp30
 70
     1
102
RTVSPropertyOp31
 70
     1
102
RTVSPropertyOp32
 70
     1
  0
XRECORD
  5
1FC
102
{ACAD_REACTORS
330
1FB
102
}
330
1FB
100
AcDbXrecord
280
     1
102
RTVSPropertyOp0
 70
     1
102
RTVSPropertyOp1
 70
     1
102
RTVSPropertyOp2
 70
     1
102
RTVSPropertyOp3
 70
     1
102
RTVSPropertyOp4
 70
     1
102
RTVSPropertyOp5
 70
     1
102
RTVSPropertyOp6
 70
     1
102
RTVSPropertyOp7
 70
     1
102
RTVSPropertyOp8
 70
     1
102
RTVSPropertyOp9
 70
     1
102
RTVSPropertyOp10
 70
     1
102
RTVSPropertyOp11
 70
     1
102
RTVSPropertyOp12
 70
     1
102
RTVSPropertyOp13
 70
     1
102
RTVSPropertyOp14
 70
     1
102
RTVSPropertyOp15
 70
     1
102
RTVSPropertyOp16
 70
     1
102
RTVSPropertyOp17
 70
     1
102
RTVSPropertyOp18
 70
     1
102
RTVSPropertyOp19
 70
     1
102
RTVSPropertyOp20
 70
     1
102
RTVSPropertyOp21
 70
     1
102
RTVSPropertyOp22
 70
     1
102
RTVSPropertyOp23
 70
     1
102
RTVSPropertyOp24
 70
     1
102
RTVSPropertyOp25
 70
     1
102
RTVSPropertyOp26
 70
     1
102
RTVSPropertyOp27
 70
     1
102
RTVSPropertyOp28
 70
     1
102
RTVSPropertyOp29
 70
     1
102
RTVSPropertyOp30
 70
     1
102
RTVSPropertyOp31
 70
     1
102
RTVSPropertyOp32
 70
     1
  0
XRECORD
  5
21C
102
{ACAD_REACTORS
330
21B
102
}
330
21B
100
AcDbXrecord
280
     1
102
RTVSPropertyOp0
 70
     1
102
RTVSPropertyOp1
 70
     1
102
RTVSPropertyOp2
 70
     1
102
RTVSPropertyOp3
 70
     1
102
RTVSPropertyOp4
 70
     1
102
RTVSPropertyOp5
 70
     1
102
RTVSPropertyOp6
 70
     1
102
RTVSPropertyOp7
 70
     1
102
RTVSPropertyOp8
 70
     1
102
RTVSPropertyOp9
 70
     1
102
RTVSPropertyOp10
 70
     1
102
RTVSPropertyOp11
 70
     1
102
RTVSPropertyOp12
 70
     1
102
RTVSPropertyOp13
 70
     1
102
RTVSPropertyOp14
 70
     1
102
RTVSPropertyOp15
 70
     1
102
RTVSPropertyOp16
 70
     1
102
RTVSPropertyOp17
 70
     1
102
RTVSPropertyOp18
 70
     1
102
RTVSPropertyOp19
 70
     1
102
RTVSPropertyOp20
 70
     1
102
RTVSPropertyOp21
 70
     1
102
RTVSPropertyOp22
 70
     1
102
RTVSPropertyOp23
 70
     1
102
RTVSPropertyOp24
 70
     1
102
RTVSPropertyOp25
 70
     1
102
RTVSPropertyOp26
 70
     1
102
RTVSPropertyOp27
 70
     1
102
RTVSPropertyOp28
 70
     1
102
RTVSPropertyOp29
 70
     1
102
RTVSPropertyOp30
 70
     1
102
RTVSPropertyOp31
 70
     1
102
RTVSPropertyOp32
 70
     1
  0
ENDSEC
  0
EOF
