  0
SECTION
  2
HEADER
  9
$ACADVER
  1
AC1015
  9
$ACADMAINTVER
 70
    18
  9
$DWGCODEPAGE
  3
ANSI_1252
  9
$INSBASE
 10
0.0
 20
0.0
 30
0.0
  9
$EXTMIN
 10
-250.0426916145284
 20
-20.42956349536507
 30
-0.0015258207003583
  9
$EXTMAX
 10
250.0608384672796
 20
980.0031759480514
 30
0.0000000349246037
  9
$LIMMIN
 10
0.0
 20
0.0
  9
$LIMMAX
 10
1189.0
 20
840.9999999999998
  9
$ORTHOMODE
 70
     0
  9
$REGENMODE
 70
     1
  9
$FILLMODE
 70
     1
  9
$QTEXTMODE
 70
     0
  9
$MIRRTEXT
 70
     0
  9
$LTSCALE
 40
1.0
  9
$ATTMODE
 70
     1
  9
$TEXTSIZE
 40
0.2
  9
$TRACEWID
 40
0.05
  9
$TEXTSTYLE
  7
STANDARD
  9
$CLAYER
  8
0
  9
$CELTYPE
  6
ByLayer
  9
$CECOLOR
 62
   256
  9
$CELTSCALE
 40
1.0
  9
$DISPSILH
 70
     0
  9
$DIMSCALE
 40
1.0
  9
$DIMASZ
 40
1800.0
  9
$DIMEXO
 40
0.0625
  9
$DIMDLI
 40
0.38
  9
$DIMRND
 40
0.0
  9
$DIMDLE
 40
0.0
  9
$DIMEXE
 40
0.18
  9
$DIMTP
 40
0.0
  9
$DIMTM
 40
0.0
  9
$DIMTXT
 40
349.9999940395354
  9
$DIMCEN
 40
0.09
  9
$DIMTSZ
 40
0.0
  9
$DIMTOL
 70
     0
  9
$DIMLIM
 70
     0
  9
$DIMTIH
 70
     1
  9
$DIMTOH
 70
     1
  9
$DIMSE1
 70
     0
  9
$DIMSE2
 70
     0
  9
$DIMTAD
 70
     0
  9
$DIMZIN
 70
     0
  9
$DIMBLK
  1

  9
$DIMASO
 70
     1
  9
$DIMSHO
 70
     1
  9
$DIMPOST
  1

  9
$DIMAPOST
  1

  9
$DIMALT
 70
     0
  9
$DIMALTD
 70
     2
  9
$DIMALTF
 40
25.4
  9
$DIMLFAC
 40
1.0
  9
$DIMTOFL
 70
     0
  9
$DIMTVP
 40
0.0
  9
$DIMTIX
 70
     0
  9
$DIMSOXD
 70
     0
  9
$DIMSAH
 70
     0
  9
$DIMBLK1
  1

  9
$DIMBLK2
  1

  9
$DIMSTYLE
  2
STANDARD
  9
$DIMCLRD
 70
     0
  9
$DIMCLRE
 70
     0
  9
$DIMCLRT
 70
     0
  9
$DIMTFAC
 40
1.0
  9
$DIMGAP
 40
0.09
  9
$DIMJUST
 70
     0
  9
$DIMSD1
 70
     0
  9
$DIMSD2
 70
     0
  9
$DIMTOLJ
 70
     1
  9
$DIMTZIN
 70
     0
  9
$DIMALTZ
 70
     0
  9
$DIMALTTZ
 70
     0
  9
$DIMUPT
 70
     0
  9
$DIMDEC
 70
     4
  9
$DIMTDEC
 70
     4
  9
$DIMALTU
 70
     2
  9
$DIMALTTD
 70
     2
  9
$DIMTXSTY
  7
STANDARD
  9
$DIMAUNIT
 70
     0
  9
$DIMADEC
 70
     0
  9
$DIMALTRND
 40
0.0
  9
$DIMAZIN
 70
     0
  9
$DIMDSEP
 70
    46
  9
$DIMATFIT
 70
     3
  9
$DIMFRAC
 70
     0
  9
$DIMLDRBLK
  1

  9
$DIMLUNIT
 70
     2
  9
$DIMLWD
 70
    -2
  9
$DIMLWE
 70
    -2
  9
$DIMTMOVE
 70
     0
  9
$LUNITS
 70
     2
  9
$LUPREC
 70
     4
  9
$SKETCHINC
 40
0.1
  9
$FILLETRAD
 40
0.0
  9
$AUNITS
 70
     0
  9
$AUPREC
 70
     0
  9
$MENU
  1
.
  9
$ELEVATION
 40
0.0
  9
$PELEVATION
 40
0.0
  9
$THICKNESS
 40
0.0
  9
$LIMCHECK
 70
     0
  9
$CHAMFERA
 40
0.0
  9
$CHAMFERB
 40
0.0
  9
$CHAMFERC
 40
0.0
  9
$CHAMFERD
 40
0.0
  9
$SKPOLY
 70
     0
  9
$TDCREATE
 40
2454871.497639329
  9
$TDUCREATE
 40
2454871.455972662
  9
$TDUPDATE
 40
2456373.364979202
  9
$TDUUPDATE
 40
2456373.323312535
  9
$TDINDWG
 40
0.0131651968
  9
$TDUSRTIMER
 40
0.0131651968
  9
$USRTIMER
 70
     1
  9
$ANGBASE
 50
0.0
  9
$ANGDIR
 70
     0
  9
$PDMODE
 70
     0
  9
$PDSIZE
 40
0.0
  9
$PLINEWID
 40
0.0
  9
$SPLFRAME
 70
     0
  9
$SPLINETYPE
 70
     6
  9
$SPLINESEGS
 70
     8
  9
$HANDSEED
  5
230
  9
$SURFTAB1
 70
     6
  9
$SURFTAB2
 70
     6
  9
$SURFTYPE
 70
     6
  9
$SURFU
 70
     6
  9
$SURFV
 70
     6
  9
$UCSBASE
  2

  9
$UCSNAME
  2

  9
$UCSORG
 10
0.0
 20
0.0
 30
0.0
  9
$UCSXDIR
 10
1.0
 20
0.0
 30
0.0
  9
$UCSYDIR
 10
0.0
 20
1.0
 30
0.0
  9
$UCSORTHOREF
  2

  9
$UCSORTHOVIEW
 70
     0
  9
$UCSORGTOP
 10
0.0
 20
0.0
 30
0.0
  9
$UCSORGBOTTOM
 10
0.0
 20
0.0
 30
0.0
  9
$UCSORGLEFT
 10
0.0
 20
0.0
 30
0.0
  9
$UCSORGRIGHT
 10
0.0
 20
0.0
 30
0.0
  9
$UCSORGFRONT
 10
0.0
 20
0.0
 30
0.0
  9
$UCSORGBACK
 10
0.0
 20
0.0
 30
0.0
  9
$PUCSBASE
  2

  9
$PUCSNAME
  2

  9
$PUCSORG
 10
0.0
 20
0.0
 30
0.0
  9
$PUCSXDIR
 10
1.0
 20
0.0
 30
0.0
  9
$PUCSYDIR
 10
0.0
 20
1.0
 30
0.0
  9
$PUCSORTHOREF
  2

  9
$PUCSORTHOVIEW
 70
     0
  9
$PUCSORGTOP
 10
0.0
 20
0.0
 30
0.0
  9
$PUCSORGBOTTOM
 10
0.0
 20
0.0
 30
0.0
  9
$PUCSORGLEFT
 10
0.0
 20
0.0
 30
0.0
  9
$PUCSORGRIGHT
 10
0.0
 20
0.0
 30
0.0
  9
$PUCSORGFRONT
 10
0.0
 20
0.0
 30
0.0
  9
$PUCSORGBACK
 10
0.0
 20
0.0
 30
0.0
  9
$USERI1
 70
     0
  9
$USERI2
 70
     0
  9
$USERI3
 70
     0
  9
$USERI4
 70
     0
  9
$USERI5
 70
     0
  9
$USERR1
 40
0.0
  9
$USERR2
 40
0.0
  9
$USERR3
 40
0.0
  9
$USERR4
 40
0.0
  9
$USERR5
 40
0.0
  9
$WORLDVIEW
 70
     1
  9
$SHADEDGE
 70
     3
  9
$SHADEDIF
 70
    70
  9
$TILEMODE
 70
     1
  9
$MAXACTVP
 70
    64
  9
$PINSBASE
 10
0.0
 20
0.0
 30
0.0
  9
$PLIMCHECK
 70
     0
  9
$PEXTMIN
 10
0.0
 20
0.0
 30
0.0
  9
$PEXTMAX
 10
1189.0
 20
840.9999999999998
 30
0.0
  9
$PLIMMIN
 10
0.0
 20
0.0
  9
$PLIMMAX
 10
1189.0
 20
840.9999999999998
  9
$UNITMODE
 70
     0
  9
$VISRETAIN
 70
     1
  9
$PLINEGEN
 70
     0
  9
$PSLTSCALE
 70
     1
  9
$TREEDEPTH
 70
  3020
  9
$CMLSTYLE
  2
Standard
  9
$CMLJUST
 70
     0
  9
$CMLSCALE
 40
1.0
  9
$PROXYGRAPHICS
 70
     1
  9
$MEASUREMENT
 70
     1
  9
$CELWEIGHT
370
    -1
  9
$ENDCAPS
280
     0
  9
$JOINSTYLE
280
     0
  9
$LWDISPLAY
290
     0
  9
$INSUNITS
 70
     4
  9
$HYPERLINKBASE
  1

  9
$STYLESHEET
  1

  9
$XEDIT
290
     1
  9
$CEPSNTYPE
380
     0
  9
$PSTYLEMODE
290
     1
  9
$FINGERPRINTGUID
  2
{8B015415-8C64-436E-B7B1-ABE90EF6F8C4}
  9
$VERSIONGUID
  2
{6EC5AB3F-7BD3-485D-AE67-DCE6E38F6A4B}
  9
$EXTNAMES
290
     1
  9
$PSVPSCALE
 40
0.0
  9
$OLESTARTUP
290
     0
  0
ENDSEC
  0
SECTION
  2
CLASSES
  0
CLASS
  1
ACDBDICTIONARYWDFLT
  2
AcDbDictionaryWithDefault
  3
ObjectDBX Classes
 90
        0
280
     0
281
     0
  0
CLASS
  1
MATERIAL
  2
AcDbMaterial
  3
ObjectDBX Classes
 90
     1153
280
     0
281
     0
  0
CLASS
  1
VISUALSTYLE
  2
AcDbVisualStyle
  3
ObjectDBX Classes
 90
     4095
280
     0
281
     0
  0
CLASS
  1
SCALE
  2
AcDbScale
  3
ObjectDBX Classes
 90
     1153
280
     0
281
     0
  0
CLASS
  1
TABLESTYLE
  2
AcDbTableStyle
  3
ObjectDBX Classes
 90
     4095
280
     0
281
     0
  0
CLASS
  1
MLEADERSTYLE
  2
AcDbMLeaderStyle
  3
ACDB_MLEADERSTYLE_CLASS
 90
     4095
280
     0
281
     0
  0
CLASS
  1
SORTENTSTABLE
  2
AcDbSortentsTable
  3
ObjectDBX Classes
 90
        0
280
     0
281
     0
  0
CLASS
  1
CELLSTYLEMAP
  2
AcDbCellStyleMap
  3
ObjectDBX Classes
 90
     1152
280
     0
281
     0
  0
CLASS
  1
DICTIONARYVAR
  2
AcDbDictionaryVar
  3
ObjectDBX Classes
 90
        0
280
     0
281
     0
  0
CLASS
  1
ACME_DOCUMENT
  2
AcMeDbDoc
  3
AcMeServices
 90
    33792
280
     1
281
     0
  0
CLASS
  1
AMGSETTINGSOBJ
  2
AmgSettingsObj
  3
"AcadM|Product Description: AutoCAD Mechanical|Company: Autodesk, Inc."
 90
    33792
280
     1
281
     0
  0
CLASS
  1
ACMESCOPE
  2
AcMeScope
  3
AcMeServices
 90
    33792
280
     1
281
     0
  0
CLASS
  1
ACMECOMMANDHISTORY
  2
AcMeCommandHistory
  3
AcMeServices
 90
    33792
280
     1
281
     0
  0
CLASS
  1
ACIMSYSVARMAN
  2
AcImSysVarManager
  3
AcMeServices
 90
    33792
280
     1
281
     0
  0
CLASS
  1
ACIMINTSYSVAR
  2
AcImIntSysVar
  3
AcMeServices
 90
    33792
280
     1
281
     0
  0
CLASS
  1
ACMEDRAWINGMAN
  2
AcMeDrawingMan
  3
AcMeServices
 90
    33792
280
     1
281
     0
  0
CLASS
  1
ACMEVIEW
  2
AcMeView
  3
AcMeServices
 90
    33792
280
     1
281
     0
  0
CLASS
  1
ACDBENTITYCACHE
  2
AcMeEntityCache
  3
AcMeServices
 90
    33792
280
     1
281
     0
  0
CLASS
  1
GSMANAGER
  2
AcMeGSManager
  3
AcMeServices
 90
    33792
280
     1
281
     0
  0
CLASS
  1
AMDTINTERNALREACTOR
  2
AmdtInternalReactor
  3
AcMeServices
 90
    33792
280
     1
281
     0
  0
CLASS
  1
ACMESTATEMGR
  2
AcMeStateMgr
  3
AcMeServices
 90
    33792
280
     1
281
     0
  0
CLASS
  1
ACGREFMASTER
  2
AcGrefMaster
  3
AcAttribServices
 90
    33792
280
     1
281
     0
  0
CLASS
  1
AM_DRAWING_MGR
  2
AcDmDwgMgr
  3
AcMechDwgViewMgmt
 90
    33792
280
     1
281
     0
  0
CLASS
  1
AM_DWG_DOCUMENT
  2
AcDmDwgDocument
  3
AcMechDwgViewMgmt
 90
    33792
280
     1
281
     0
  0
CLASS
  1
AM_DWG_SHEET
  2
AcDmSheet
  3
AcMechDwgViewMgmt
 90
    33792
280
     1
281
     0
  0
CLASS
  1
AM_VIEWDIMPARMAP
  2
AcDmViewDimParMap
  3
AcMechDwgViewMgmt
 90
    33792
280
     1
281
     0
  0
CLASS
  1
ACIMREALSYSVAR
  2
AcImRealSysVar
  3
AcMeServices
 90
    33792
280
     1
281
     0
  0
CLASS
  1
AM_DWGMGR_NAME
  2
AcDmDwgMgrName
  3
AcMechDwgViewMgmt
 90
    33792
280
     1
281
     0
  0
CLASS
  1
ACME_DATABASE
  2
AcMeDbDatabase
  3
AcMeServices
 90
    33792
280
     1
281
     0
  0
CLASS
  1
ACRFINSADJUSTERMGR
  2
AcRfInsAdjusterMgr
  3
AcMeServices
 90
    33792
280
     1
281
     0
  0
CLASS
  1
ACGREFACADMASTER
  2
AcGrefacadMaster
  3
AcGrefServices
 90
    33792
280
     1
281
     0
  0
CLASS
  1
AMDTMENUSTATEMGR
  2
AmdtMenuStateMgr
  3
McadcomServices
 90
    33792
280
     1
281
     0
  0
CLASS
  1
AMDTMCOMMENUSTATE
  2
AmdtMcomMenuState
  3
McadcomServices
 90
    33792
280
     1
281
     0
  0
CLASS
  1
AMIMASTER
  2
AmiMaster
  3
AmiServices
 90
    33792
280
     1
281
     0
  0
CLASS
  1
MAPIAMMOUDLE
  2
MApiAmModule
  3
MApiAmServices
 90
    33792
280
     1
281
     0
  0
CLASS
  1
ACIMSTRSYSVAR
  2
AcImStrSysVar
  3
AcMeServices
 90
    33792
280
     1
281
     0
  0
CLASS
  1
AMDTADMENUSTATE
  2
AmdtAdMenuState
  3
DesignerServices
 90
    33792
280
     1
281
     0
  0
CLASS
  1
ADAPPL
  2
AcAdAppl
  3
DesignerServices
 90
    33792
280
     1
281
     0
  0
CLASS
  1
DEPMGR
  2
AcAdDepMgr
  3
DesignerServices
 90
    33792
280
     1
281
     0
  0
CLASS
  1
PARAMMGR
  2
AcAdParamMgr
  3
DesignerServices
 90
    33792
280
     1
281
     0
  0
CLASS
  1
PARAMSCOPE
  2
AcAdParamScope
  3
DesignerServices
 90
    33792
280
     1
281
     0
  0
CLASS
  1
NAMEDAPPL
  2
AcAdNamedAppl
  3
DesignerServices
 90
    33792
280
     1
281
     0
  0
CLASS
  1
AMDTDMMENUSTATE
  2
AmdtDmMenuState
  3
AcMechDwgViewMgmt
 90
    33792
280
     1
281
     0
  0
CLASS
  1
AMDTAMMENUSTATE
  2
AmdtAmMenuState
  3
DesignerAssemblies
 90
    33792
280
     1
281
     0
  0
CLASS
  1
ACAMPROJECT
  2
AcAmProject
  3
DesignerAssemblies
 90
    33792
280
     1
281
     0
  0
CLASS
  1
ACAMGRCOMPDEF
  2
AcAmGrCompDef
  3
DesignerAssemblies
 90
    33792
280
     1
281
     0
  0
CLASS
  1
ACCMCONTEXT
  2
AcCmContext
  3
DesignerAssemblies
 90
    33792
280
     1
281
     0
  0
CLASS
  1
ACAMCOMPDEF
  2
AcAmCompDef
  3
DesignerAssemblies
 90
    33792
280
     1
281
     0
  0
CLASS
  1
ACAMCOMPDEFMGR
  2
AcAmCompDefMgr
  3
DesignerAssemblies
 90
    33792
280
     1
281
     0
  0
CLASS
  1
AMCONTEXTMGR
  2
AcAmContextMgr
  3
DesignerAssemblies
 90
    33792
280
     1
281
     0
  0
CLASS
  1
ACAMCONTEXTMODELER
  2
AcAmContextModeler
  3
DesignerAssemblies
 90
    33792
280
     1
281
     0
  0
CLASS
  1
ACMDATADICTIONARY
  2
AcmDataDictionary
  3
"AcmSymBB|Product Description: AutoCAD Mechanical|Company: Autodesk, Inc."
 90
    33792
280
     1
281
     0
  0
CLASS
  1
CATALOGSTATE
  2
AcAmCatalogState
  3
DesignerAssemblies
 90
    33792
280
     1
281
     0
  0
CLASS
  1
ACAMGRCOMPDEFSET
  2
AcAmGrCompDefSet
  3
DesignerAssemblies
 90
    33792
280
     1
281
     0
  0
CLASS
  1
AMDTBROWSERDBTAB
  2
AmdtBrowserDbTab
  3
McadcomServices
 90
    33792
280
     1
281
     0
  0
CLASS
  1
CBROWSERAPPOBJECT
  2
CBrowserAppObject
  3
McadcomServices
 90
    33792
280
     1
281
     0
  0
CLASS
  1
DM_PLACEHOLDER
  2
AcDmSelsetPlaceholder
  3
AcMechDwgViewMgmt
 90
    33792
280
     1
281
     0
  0
CLASS
  1
EXACXREFPANELOBJECT
  2
ExAcXREFPanelObject
  3
EXAC_ESW
 90
    33793
280
     1
281
     0
  0
CLASS
  1
NPOCOLLECTION
  2
AcDbImpNonPersistentObjectsCollection
  3
ObjectDBX Classes
 90
    33921
280
     0
281
     0
  0
CLASS
  1
ACMSTANDARDANSI
  2
AcmStandardANSI
  3
"Amdt_StdImp|Product Description: AutoCAD Mechanical|Company: Autodesk, Inc."
 90
    33792
280
     1
281
     0
  0
CLASS
  1
ACMSURFSTANDARDANSI
  2
AcmSurfTextStdANSI
  3
"Amdt_StdImp|Product Description: AutoCAD Mechanical|Company: Autodesk, Inc."
 90
    33792
280
     1
281
     0
  0
CLASS
  1
ACMFCFSTANDARDANSI
  2
AcmFCFStdANSI
  3
"Amdt_StdImp|Product Description: AutoCAD Mechanical|Company: Autodesk, Inc."
 90
    33792
280
     1
281
     0
  0
CLASS
  1
ACMWELDSTANDARDANSI
  2
AcmWeldingStdANSI
  3
"Amdt_StdImp|Product Description: AutoCAD Mechanical|Company: Autodesk, Inc."
 90
    33792
280
     1
281
     0
  0
CLASS
  1
ACMIDSTANDARDANSI
  2
AcmIdStdANSI
  3
"Amdt_StdImp|Product Description: AutoCAD Mechanical|Company: Autodesk, Inc."
 90
    33792
280
     1
281
     0
  0
CLASS
  1
ACMDATUMSTANDARDANSI
  2
AcmDatumStdANSI
  3
"Amdt_StdImp|Product Description: AutoCAD Mechanical|Company: Autodesk, Inc."
 90
    33792
280
     1
281
     0
  0
CLASS
  1
ACMBOMSTANDARDANSI
  2
AcmBOMStdANSI
  3
"Amdt_StdImp|Product Description: AutoCAD Mechanical|Company: Autodesk, Inc."
 90
    33792
280
     1
281
     0
  0
CLASS
  1
ACMDETAILSTANDARDANSI
  2
AmdtDetailSymStdANSI
  3
"Amdt_StdImp|Product Description: AutoCAD Mechanical|Company: Autodesk, Inc."
 90
    33792
280
     1
281
     0
  0
CLASS
  1
ACMSECTIONSTANDARDANSI
  2
AmdtSectionSymStdANSI
  3
"Amdt_StdImp|Product Description: AutoCAD Mechanical|Company: Autodesk, Inc."
 90
    33792
280
     1
281
     0
  0
CLASS
  1
ACMCENTERLINESTANDARDANSI
  2
AmdtCenterLineStdANSI
  3
"Amdt_StdImp|Product Description: AutoCAD Mechanical|Company: Autodesk, Inc."
 90
    33792
280
     1
281
     0
  0
CLASS
  1
ACMTHREADLINESTANDARDANSI
  2
AmdtThreadLineStdANSI
  3
"Amdt_StdImp|Product Description: AutoCAD Mechanical|Company: Autodesk, Inc."
 90
    33792
280
     1
281
     0
  0
CLASS
  1
ACMNOTESTANDARDANSI
  2
AmdtNoteStdANSI
  3
"Amdt_StdImp|Product Description: AutoCAD Mechanical|Company: Autodesk, Inc."
 90
    33792
280
     1
281
     0
  0
CLASS
  1
ACMTAPERSTANDARDANSI
  2
AcmTaperStdANSI
  3
"Amdt_StdImp|Product Description: AutoCAD Mechanical|Company: Autodesk, Inc."
 90
    33792
280
     1
281
     0
  0
CLASS
  1
ACMANOOTATIONVIEWSTANDARDANSI
  2
AmdtAnViewStdANSI
  3
"Amdt_StdImp|Product Description: AutoCAD Mechanical|Company: Autodesk, Inc."
 90
    33792
280
     1
281
     0
  0
CLASS
  1
ACAMGLAYSTD
  2
AcAmgLayStd
  3
"AmgLay|Product Description: AutoCAD Mechanical|Company: Autodesk, Inc."
 90
    33792
280
     1
281
     0
  0
CLASS
  1
ACAMGDIMSTD
  2
AcAmgDimStd
  3
"AmgDim|Product Description: AutoCAD Mechanical|Company: Autodesk, Inc."
 90
    33792
280
     1
281
     0
  0
CLASS
  1
AMGOBJPROPCFG
  2
AmgObjPropCfg
  3
"AmgLay|Product Description: AutoCAD Mechanical|Company: Autodesk, Inc."
 90
    33793
280
     1
281
     0
  0
CLASS
  1
ACAMGHOLECHARTSTDANSI
  2
AcAmgHoleChartStdANSI
  3
AmgDim|Product Description: AutoCAD Mechanical|Company: Autodesk, Inc.
 90
    33792
280
     1
281
     0
  0
CLASS
  1
ACAMGTITLESTD
  2
AcAmgTitleStd
  3
"AmgTitle|Product Description: AutoCAD Mechanical|Company: Autodesk, Inc."
 90
    36863
280
     1
281
     0
  0
CLASS
  1
AMDTNOTETEMPLATEDB
  2
AmdtNoteTemplateDB
  3
AcmSymBB|Product Description: AutoCAD Mechanical|Company: Autodesk, Inc.
 90
    33792
280
     1
281
     0
  0
CLASS
  1
ACAMGFILTERDAT
  2
AcAmgFilterDat
  3
"AcadM|Product Description: AutoCAD Mechanical|Company: Autodesk, Inc."
 90
    33792
280
     1
281
     0
  0
CLASS
  1
CAMSSTRUCTBTNSTATE
  2
StructBtnState
  3
DesignerAssemblies
 90
    33792
280
     1
281
     0
  0
CLASS
  1
ACDBPLACEHOLDER
  2
AcDbPlaceHolder
  3
ObjectDBX Classes
 90
        0
280
     0
281
     0
  0
CLASS
  1
LAYOUT
  2
AcDbLayout
  3
ObjectDBX Classes
 90
        0
280
     0
281
     0
  0
CLASS
  1
SOLID_BACKGROUND
  2
AcDbSolidBackground
  3
SCENEOE
 90
    36863
280
     0
281
     0
  0
ENDSEC
  0
SECTION
  2
TABLES
  0
TABLE
  2
VPORT
  5
29
102
{ACAD_XDICTIONARY
360
2E
102
}
330
0
100
AcDbSymbolTable
 70
     1
  0
VPORT
  5
2A
330
29
100
AcDbSymbolTableRecord
100
AcDbViewportTableRecord
  2
*ACTIVE
 70
     0
 10
0.0
 20
0.0
 11
1.0
 21
1.0
 12
0.0090734263753802
 22
479.7868062263431
 13
0.0
 23
0.0
 14
1.0
 24
1.0
 15
0.0
 25
0.0
 16
0.0
 26
0.0
 36
1.0
 17
0.0
 27
0.0
 37
0.0
 40
1131.560650069067
 41
3.762762762762763
 42
50.0
 43
0.0
 44
0.0
 50
0.0
 51
0.0
 71
     0
 72
   100
 73
     1
 74
     1
 75
     0
 76
     0
 77
     0
 78
     0
281
     0
 65
     1
110
0.0
120
0.0
130
0.0
111
1.0
121
0.0
131
0.0
112
0.0
122
1.0
132
0.0
 79
     0
146
0.0
1001
ACAD_NAV_VCDISPLAY
1070
     3
  0
ENDTAB
  0
TABLE
  2
LTYPE
  5
24
330
0
100
AcDbSymbolTable
 70
     1
  0
LTYPE
  5
25
330
24
100
AcDbSymbolTableRecord
100
AcDbLinetypeTableRecord
  2
ByBlock
 70
     0
  3

 72
    65
 73
     0
 40
0.0
  0
LTYPE
  5
26
330
24
100
AcDbSymbolTableRecord
100
AcDbLinetypeTableRecord
  2
ByLayer
 70
     0
  3

 72
    65
 73
     0
 40
0.0
  0
LTYPE
  5
14
330
24
100
AcDbSymbolTableRecord
100
AcDbLinetypeTableRecord
  2
CONTINUOUS
 70
     0
  3
Solid line
 72
    65
 73
     0
 40
0.0
  0
ENDTAB
  0
TABLE
  2
LAYER
  5
1C
102
{ACAD_XDICTIONARY
360
1D
102
}
330
0
100
AcDbSymbolTable
 70
     6
  0
LAYER
  5
6
330
1C
100
AcDbSymbolTableRecord
100
AcDbLayerTableRecord
  2
0
 70
     0
 62
     7
  6
CONTINUOUS
370
    -3
390
7
  0
LAYER
  5
7E
330
1C
100
AcDbSymbolTableRecord
100
AcDbLayerTableRecord
  2
GEB-KONTUR-A
 70
     0
 62
     5
  6
CONTINUOUS
370
    -3
390
7
  0
LAYER
  5
1C6
330
1C
100
AcDbSymbolTableRecord
100
AcDbLayerTableRecord
  2
GEB-ART-NR
 70
     0
 62
     1
  6
CONTINUOUS
370
    18
390
7
  0
LAYER
  5
75
330
1C
100
AcDbSymbolTableRecord
100
AcDbLayerTableRecord
  2
GEB-BEZUG
 70
     0
 62
     2
  6
CONTINUOUS
370
    25
390
7
  0
LAYER
  5
1C3
330
1C
100
AcDbSymbolTableRecord
100
AcDbLayerTableRecord
  2
GEB-TEXT
 70
     0
 62
     5
  6
CONTINUOUS
370
    18
390
7
  0
LAYER
  5
79
330
1C
100
AcDbSymbolTableRecord
100
AcDbLayerTableRecord
  2
Arbeitspunkt(DIN)
 70
     0
 62
     7
  6
CONTINUOUS
370
    25
390
7
  0
ENDTAB
  0
TABLE
  2
STYLE
  5
21
330
0
100
AcDbSymbolTable
 70
     1
  0
STYLE
  5
22
330
21
100
AcDbSymbolTableRecord
100
AcDbTextStyleTableRecord
  2
STANDARD
 70
     0
 40
0.0
 41
1.0
 50
0.0
 71
     0
 42
0.2
  3
arial.ttf
  4

1001
ACAD
1000
Arial
1071
       34
  0
ENDTAB
  0
TABLE
  2
VIEW
  5
27
330
0
100
AcDbSymbolTable
 70
     0
  0
ENDTAB
  0
TABLE
  2
UCS
  5
28
330
0
100
AcDbSymbolTable
 70
     0
  0
ENDTAB
  0
TABLE
  2
APPID
  5
2F
330
0
100
AcDbSymbolTable
 70
     3
  0
APPID
  5
20
330
2F
100
AcDbSymbolTableRecord
100
AcDbRegAppTableRecord
  2
ACAD
 70
     0
  0
APPID
  5
2D
330
2F
100
AcDbSymbolTableRecord
100
AcDbRegAppTableRecord
  2
ACAD_NAV_VCDISPLAY
 70
     0
  0
APPID
  5
22F
330
2F
100
AcDbSymbolTableRecord
100
AcDbRegAppTableRecord
  2
ACAD_MLEADERVER
 70
     0
  0
ENDTAB
  0
TABLE
  2
DIMSTYLE
  5
30
330
0
100
AcDbSymbolTable
 70
     1
100
AcDbDimStyleTable
 71
     1
340
31
  0
DIMSTYLE
105
31
330
30
100
AcDbSymbolTableRecord
100
AcDbDimStyleTableRecord
  2
STANDARD
 70
     0
279
     2
340
22
  0
ENDTAB
  0
TABLE
  2
BLOCK_RECORD
  5
1
330
0
100
AcDbSymbolTable
 70
     1
  0
BLOCK_RECORD
  5
2
102
{ACAD_XDICTIONARY
360
3
102
}
330
1
100
AcDbSymbolTableRecord
100
AcDbBlockTableRecord
  2
*Model_Space
340
16
  0
BLOCK_RECORD
  5
18
330
1
100
AcDbSymbolTableRecord
100
AcDbBlockTableRecord
  2
*Paper_Space
340
1B
  0
BLOCK_RECORD
  5
72
330
1
100
AcDbSymbolTableRecord
100
AcDbBlockTableRecord
  2
Einfügepunkt
340
0
102
{BLKREFS
331
71
102
}
  0
ENDTAB
  0
ENDSEC
  0
SECTION
  2
BLOCKS
  0
BLOCK
  5
5
330
2
100
AcDbEntity
  8
0
100
AcDbBlockBegin
  2
*Model_Space
 70
     0
 10
0.0
 20
0.0
 30
0.0
  3
*Model_Space
  1

  0
ENDBLK
  5
15
330
2
100
AcDbEntity
  8
0
100
AcDbBlockEnd
  0
BLOCK
  5
19
330
18
100
AcDbEntity
 67
     1
  8
0
100
AcDbBlockBegin
  2
*Paper_Space
 70
     0
 10
0.0
 20
0.0
 30
0.0
  3
*Paper_Space
  1

  0
ENDBLK
  5
1A
330
18
100
AcDbEntity
 67
     1
  8
0
100
AcDbBlockEnd
  0
BLOCK
  5
73
330
72
100
AcDbEntity
  8
0
100
AcDbBlockBegin
  2
Einfügepunkt
 70
     0
 10
0.0
 20
0.0
 30
0.0
  3
Einfügepunkt
  1

  0
LINE
  5
74
330
72
100
AcDbEntity
  8
GEB-BEZUG
100
AcDbLine
 10
-7.071067811865816
 20
-7.071067811865106
 30
0.0
 11
7.07106781186475
 21
7.071067811865816
 31
0.0
  0
LINE
  5
76
330
72
100
AcDbEntity
  8
GEB-BEZUG
100
AcDbLine
 10
-7.071067811865106
 20
7.071067811865816
 30
0.0
 11
7.071067811865461
 21
-7.071067811865106
 31
0.0
  0
ENDBLK
  5
77
330
72
100
AcDbEntity
  8
0
100
AcDbBlockEnd
  0
ENDSEC
  0
SECTION
  2
ENTITIES
  0
INSERT
  5
71
330
2
100
AcDbEntity
  8
0
 48
25.0
100
AcDbBlockReference
  2
Einfügepunkt
 10
0.0
 20
0.0
 30
0.0
  0
LINE
  5
78
330
2
100
AcDbEntity
  8
Arbeitspunkt(DIN)
 48
25.0
100
AcDbLine
 10
-0.0000000000000568
 20
0.0
 30
0.0
 11
-0.0000000000000568
 21
-2.5
 31
0.0
  0
LINE
  5
7A
330
2
100
AcDbEntity
  8
Arbeitspunkt(DIN)
 48
25.0
100
AcDbLine
 10
-0.0000000000000568
 20
0.0
 30
0.0
 11
-0.0000000000000568
 21
2.5
 31
0.0
  0
LINE
  5
7B
330
2
100
AcDbEntity
  8
Arbeitspunkt(DIN)
 48
25.0
100
AcDbLine
 10
-0.0000000000000568
 20
0.0
 30
0.0
 11
-2.500000000000056
 21
0.0
 31
0.0
  0
LINE
  5
7C
330
2
100
AcDbEntity
  8
Arbeitspunkt(DIN)
 48
25.0
100
AcDbLine
 10
-0.0000000000000568
 20
0.0
 30
0.0
 11
2.499999999999943
 21
0.0
 31
0.0
  0
CIRCLE
  5
7D
330
2
100
AcDbEntity
  8
GEB-KONTUR-A
 48
25.0
100
AcDbCircle
 10
76.50000000000037
 20
338.4999999999998
 30
0.0
 40
13.5
  0
LINE
  5
7F
330
2
100
AcDbEntity
  8
GEB-KONTUR-A
 48
25.0
100
AcDbLine
 10
98.61953464580015
 20
330.9683210999631
 30
0.0
 11
87.20000000000029
 21
327.9084660136819
 31
0.0
  0
ARC
  5
80
330
2
100
AcDbEntity
  8
GEB-KONTUR-A
 48
25.0
100
AcDbCircle
 10
97.32543942028755
 20
335.7979502314083
 30
0.0
 40
4.999999999999982
100
AcDbArc
 50
285.0000000000008
 51
352.6073121945977
  0
ARC
  5
81
330
2
100
AcDbEntity
  8
GEB-KONTUR-A
 48
25.0
100
AcDbCircle
 10
76.50000000000023
 20
338.4999999999998
 30
0.0
 40
26.0
100
AcDbArc
 50
352.6073121945977
 51
187.3926878054023
  0
ARC
  5
82
330
2
100
AcDbEntity
  8
GEB-KONTUR-A
 48
25.0
100
AcDbCircle
 10
55.67456057971296
 20
335.7979502314083
 30
0.0
 40
4.999999999999972
100
AcDbArc
 50
187.3926878054023
 51
255.0000000000008
  0
LINE
  5
83
330
2
100
AcDbEntity
  8
GEB-KONTUR-A
 48
25.0
100
AcDbLine
 10
65.80000000000025
 20
327.9084660136819
 30
0.0
 11
54.38046535420037
 21
330.9683210999631
 31
0.0
  0
CIRCLE
  5
84
330
2
100
AcDbEntity
  8
GEB-KONTUR-A
 48
25.0
100
AcDbCircle
 10
56.50000000000023
 20
338.4999999999998
 30
0.0
 40
3.5
  0
CIRCLE
  5
85
330
2
100
AcDbEntity
  8
GEB-KONTUR-A
 48
25.0
100
AcDbCircle
 10
96.50000000000023
 20
338.4999999999998
 30
0.0
 40
3.5
  0
CIRCLE
  5
86
330
2
100
AcDbEntity
  8
GEB-KONTUR-A
 48
25.0
100
AcDbCircle
 10
76.50000000000021
 20
358.4999999999998
 30
0.0
 40
3.5
  0
CIRCLE
  5
87
330
2
100
AcDbEntity
  8
GEB-KONTUR-A
 48
25.0
100
AcDbCircle
 10
76.50000000000037
 20
338.4999999999998
 30
0.0
 40
9.3155
  0
LINE
  5
88
330
2
100
AcDbEntity
  8
GEB-KONTUR-A
 48
25.0
100
AcDbLine
 10
85.5000000000003
 20
303.4999999999998
 30
0.0
 11
86.50000000000028
 21
304.4999999999999
 31
0.0
  0
LINE
  5
89
330
2
100
AcDbEntity
  8
GEB-KONTUR-A
 48
25.0
100
AcDbLine
 10
67.5000000000003
 20
303.4999999999998
 30
0.0
 11
66.50000000000031
 21
304.4999999999998
 31
0.0
  0
LINE
  5
8A
330
2
100
AcDbEntity
  8
GEB-KONTUR-A
 48
25.0
100
AcDbLine
 10
66.50000000000028
 20
318.4999999999998
 30
0.0
 11
66.50000000000031
 21
304.4999999999998
 31
0.0
  0
LINE
  5
8B
330
2
100
AcDbEntity
  8
GEB-KONTUR-A
 48
25.0
100
AcDbLine
 10
86.50000000000028
 20
318.4999999999998
 30
0.0
 11
86.50000000000028
 21
304.4999999999999
 31
0.0
  0
LINE
  5
8C
330
2
100
AcDbEntity
  8
GEB-KONTUR-A
 48
25.0
100
AcDbLine
 10
63.00000000000027
 20
320.6999999999998
 30
0.0
 11
63.00000000000027
 21
318.4999999999998
 31
0.0
  0
LINE
  5
8D
330
2
100
AcDbEntity
  8
GEB-KONTUR-A
 48
25.0
100
AcDbLine
 10
90.00000000000028
 20
320.6999999999998
 30
0.0
 11
90.00000000000028
 21
318.4999999999998
 31
0.0
  0
LINE
  5
8E
330
2
100
AcDbEntity
  8
GEB-KONTUR-A
 48
25.0
100
AcDbLine
 10
65.80000000000032
 20
322.3165807537307
 30
0.0
 11
63.00000000000024
 21
320.6999999999998
 31
0.0
  0
LINE
  5
8F
330
2
100
AcDbEntity
  8
GEB-KONTUR-A
 48
25.0
100
AcDbLine
 10
87.20000000000025
 20
322.3165807537307
 30
0.0
 11
90.0000000000003
 21
320.6999999999998
 31
0.0
  0
LINE
  5
90
330
2
100
AcDbEntity
  8
GEB-KONTUR-A
 48
25.0
100
AcDbLine
 10
65.80000000000028
 20
330.2683537490973
 30
0.0
 11
65.80000000000028
 21
322.3165807537307
 31
0.0
  0
LINE
  5
91
330
2
100
AcDbEntity
  8
GEB-KONTUR-A
 48
25.0
100
AcDbLine
 10
87.20000000000027
 20
330.2683537490971
 30
0.0
 11
87.2000000000003
 21
322.3165807537307
 31
0.0
  0
LINE
  5
92
330
2
100
AcDbEntity
  8
GEB-KONTUR-A
 48
25.0
100
AcDbLine
 10
67.5000000000003
 20
303.4999999999998
 30
0.0
 11
85.5000000000003
 21
303.4999999999998
 31
0.0
  0
LINE
  5
93
330
2
100
AcDbEntity
  8
GEB-KONTUR-A
 48
25.0
100
AcDbLine
 10
66.50000000000031
 20
304.4999999999998
 30
0.0
 11
86.50000000000032
 21
304.4999999999998
 31
0.0
  0
LINE
  5
94
330
2
100
AcDbEntity
  8
GEB-KONTUR-A
 48
25.0
100
AcDbLine
 10
63.00000000000029
 20
318.4999999999998
 30
0.0
 11
90.00000000000028
 21
318.4999999999998
 31
0.0
  0
LINE
  5
95
330
2
100
AcDbEntity
  8
GEB-KONTUR-A
 48
25.0
100
AcDbLine
 10
63.00000000000029
 20
320.6999999999998
 30
0.0
 11
90.00000000000028
 21
320.6999999999998
 31
0.0
  0
LINE
  5
96
330
2
100
AcDbEntity
  8
GEB-KONTUR-A
 48
25.0
100
AcDbLine
 10
71.4532662877562
 20
338.4999999999998
 30
0.0
 11
81.54673371224436
 21
338.4999999999998
 31
0.0
  0
SPLINE
  5
97
330
2
100
AcDbEntity
  8
GEB-KONTUR-A
 48
25.0
100
AcDbSpline
210
0.0
220
0.0
230
1.0
 70
     8
 71
     3
 72
    30
 73
    26
 74
     0
 42
0.0000000001
 43
0.0000000001
 40
-1.843484145447361
 40
-1.843484145447361
 40
-1.843484145447361
 40
-1.843484145447361
 40
-1.620789439777083
 40
-1.620789439777083
 40
-1.398094734106805
 40
-1.398094734106805
 40
-1.273165492988613
 40
-1.273165492988613
 40
-1.148236251870422
 40
-1.148236251870422
 40
-1.034989162297051
 40
-1.034989162297051
 40
-0.921742072723681
 40
-0.921742072723681
 40
-0.8084949831503106
 40
-0.8084949831503106
 40
-0.6952478935769402
 40
-0.6952478935769402
 40
-0.5703186524587487
 40
-0.5703186524587487
 40
-0.4453894113405572
 40
-0.4453894113405572
 40
-0.2226947056702784
 40
-0.2226947056702784
 40
0.0
 40
0.0
 40
0.0
 40
0.0
 10
71.45326628775619
 20
338.4999999999998
 30
0.0
 10
71.45326628775619
 20
337.7576843144323
 30
0.0
 10
71.54511780555181
 20
336.9534180549304
 30
0.0
 10
71.93696505781449
 20
335.4096716530823
 30
0.0
 10
72.23629866173229
 20
334.6696866160364
 30
0.0
 10
72.80310180747815
 20
333.6836889685762
 30
0.0
 10
73.0556866759041
 20
333.3137942000521
 30
0.0
 10
73.63530649369088
 20
332.6400039426496
 30
0.0
 10
73.9630726613106
 20
332.3365794618012
 30
0.0
 10
74.59981562490629
 20
331.8816918336511
 30
0.0
 10
74.9576860627755
 20
331.6835155096831
 30
0.0
 10
75.71875870873888
 20
331.4160314220631
 30
0.0
 10
76.1225097014224
 20
331.3480633270556
 30
0.0
 10
76.87749029857819
 20
331.3480633270556
 30
0.0
 10
77.28124129126172
 20
331.4160314220631
 30
0.0
 10
78.04231393722509
 20
331.6835155096831
 30
0.0
 10
78.40018437509428
 20
331.8816918336511
 30
0.0
 10
79.03692733868997
 20
332.3365794618012
 30
0.0
 10
79.36469350630972
 20
332.6400039426496
 30
0.0
 10
79.94431332409646
 20
333.3137942000521
 30
0.0
 10
80.19689819252242
 20
333.6836889685762
 30
0.0
 10
80.76370133826827
 20
334.6696866160364
 30
0.0
 10
81.06303494218607
 20
335.4096716530823
 30
0.0
 10
81.45488219444876
 20
336.9534180549304
 30
0.0
 10
81.54673371224438
 20
337.7576843144323
 30
0.0
 10
81.54673371224438
 20
338.4999999999998
 30
0.0
  0
LINE
  5
98
330
2
100
AcDbEntity
  8
GEB-KONTUR-A
 48
25.0
100
AcDbLine
 10
65.80000000000028
 20
322.3165807537307
 30
0.0
 11
87.20000000000029
 21
322.3165807537307
 31
0.0
  0
CIRCLE
  5
99
330
2
100
AcDbEntity
  8
GEB-KONTUR-A
 48
25.0
100
AcDbCircle
 10
-76.49999999999971
 20
338.5
 30
0.0
 40
13.5
  0
LINE
  5
9A
330
2
100
AcDbEntity
  8
GEB-KONTUR-A
 48
25.0
100
AcDbLine
 10
-54.38046535419997
 20
330.9683210999633
 30
0.0
 11
-65.79999999999981
 21
327.9084660136819
 31
0.0
  0
ARC
  5
9B
330
2
100
AcDbEntity
  8
GEB-KONTUR-A
 48
25.0
100
AcDbCircle
 10
-55.67456057971256
 20
335.7979502314086
 30
0.0
 40
4.999999999999982
100
AcDbArc
 50
285.0000000000008
 51
352.6073121945977
  0
ARC
  5
9C
330
2
100
AcDbEntity
  8
GEB-KONTUR-A
 48
25.0
100
AcDbCircle
 10
-76.49999999999983
 20
338.5
 30
0.0
 40
26.0
100
AcDbArc
 50
352.6073121945977
 51
187.3926878054023
  0
ARC
  5
9D
330
2
100
AcDbEntity
  8
GEB-KONTUR-A
 48
25.0
100
AcDbCircle
 10
-97.32543942028712
 20
335.7979502314086
 30
0.0
 40
4.999999999999972
100
AcDbArc
 50
187.3926878054023
 51
255.0000000000008
  0
LINE
  5
9E
330
2
100
AcDbEntity
  8
GEB-KONTUR-A
 48
25.0
100
AcDbLine
 10
-87.19999999999982
 20
327.9084660136819
 30
0.0
 11
-98.61953464579972
 21
330.9683210999631
 31
0.0
  0
CIRCLE
  5
9F
330
2
100
AcDbEntity
  8
GEB-KONTUR-A
 48
25.0
100
AcDbCircle
 10
-96.49999999999984
 20
338.5
 30
0.0
 40
3.5
  0
CIRCLE
  5
A0
330
2
100
AcDbEntity
  8
GEB-KONTUR-A
 48
25.0
100
AcDbCircle
 10
-56.49999999999983
 20
338.5
 30
0.0
 40
3.5
  0
CIRCLE
  5
A1
330
2
100
AcDbEntity
  8
GEB-KONTUR-A
 48
25.0
100
AcDbCircle
 10
-76.49999999999983
 20
358.5
 30
0.0
 40
3.5
  0
CIRCLE
  5
A2
330
2
100
AcDbEntity
  8
GEB-KONTUR-A
 48
25.0
100
AcDbCircle
 10
-76.49999999999971
 20
338.5
 30
0.0
 40
9.3155
  0
LINE
  5
A3
330
2
100
AcDbEntity
  8
GEB-KONTUR-A
 48
25.0
100
AcDbLine
 10
-67.49999999999977
 20
303.5
 30
0.0
 11
-66.4999999999998
 21
304.4999999999999
 31
0.0
  0
LINE
  5
A4
330
2
100
AcDbEntity
  8
GEB-KONTUR-A
 48
25.0
100
AcDbLine
 10
-85.49999999999977
 20
303.5
 30
0.0
 11
-86.49999999999982
 21
304.4999999999999
 31
0.0
  0
LINE
  5
A5
330
2
100
AcDbEntity
  8
GEB-KONTUR-A
 48
25.0
100
AcDbLine
 10
-86.49999999999982
 20
318.5
 30
0.0
 11
-86.49999999999982
 21
304.4999999999999
 31
0.0
  0
LINE
  5
A6
330
2
100
AcDbEntity
  8
GEB-KONTUR-A
 48
25.0
100
AcDbLine
 10
-66.4999999999998
 20
318.5
 30
0.0
 11
-66.4999999999998
 21
304.4999999999999
 31
0.0
  0
LINE
  5
A7
330
2
100
AcDbEntity
  8
GEB-KONTUR-A
 48
25.0
100
AcDbLine
 10
-89.99999999999984
 20
320.6999999999998
 30
0.0
 11
-89.99999999999984
 21
318.5
 31
0.0
  0
LINE
  5
A8
330
2
100
AcDbEntity
  8
GEB-KONTUR-A
 48
25.0
100
AcDbLine
 10
-62.9999999999998
 20
320.6999999999998
 30
0.0
 11
-62.9999999999998
 21
318.5
 31
0.0
  0
LINE
  5
A9
330
2
100
AcDbEntity
  8
GEB-KONTUR-A
 48
25.0
100
AcDbLine
 10
-87.19999999999975
 20
322.3165807537309
 30
0.0
 11
-89.99999999999984
 21
320.6999999999998
 31
0.0
  0
LINE
  5
AA
330
2
100
AcDbEntity
  8
GEB-KONTUR-A
 48
25.0
100
AcDbLine
 10
-65.79999999999984
 20
322.3165807537309
 30
0.0
 11
-62.9999999999998
 21
320.6999999999998
 31
0.0
  0
LINE
  5
AB
330
2
100
AcDbEntity
  8
GEB-KONTUR-A
 48
25.0
100
AcDbLine
 10
-87.19999999999982
 20
330.2683537490973
 30
0.0
 11
-87.19999999999982
 21
322.3165807537307
 31
0.0
  0
LINE
  5
AC
330
2
100
AcDbEntity
  8
GEB-KONTUR-A
 48
25.0
100
AcDbLine
 10
-65.79999999999981
 20
330.2683537490971
 30
0.0
 11
-65.79999999999981
 21
322.3165807537307
 31
0.0
  0
LINE
  5
AD
330
2
100
AcDbEntity
  8
GEB-KONTUR-A
 48
25.0
100
AcDbLine
 10
-85.49999999999982
 20
303.5
 30
0.0
 11
-67.49999999999977
 21
303.5
 31
0.0
  0
LINE
  5
AE
330
2
100
AcDbEntity
  8
GEB-KONTUR-A
 48
25.0
100
AcDbLine
 10
-86.49999999999982
 20
304.4999999999999
 30
0.0
 11
-66.4999999999998
 21
304.4999999999999
 31
0.0
  0
LINE
  5
AF
330
2
100
AcDbEntity
  8
GEB-KONTUR-A
 48
25.0
100
AcDbLine
 10
-89.99999999999984
 20
318.5
 30
0.0
 11
-62.9999999999998
 21
318.5
 31
0.0
  0
LINE
  5
B0
330
2
100
AcDbEntity
  8
GEB-KONTUR-A
 48
25.0
100
AcDbLine
 10
-89.99999999999976
 20
320.6999999999998
 30
0.0
 11
-62.99999999999982
 21
320.6999999999998
 31
0.0
  0
LINE
  5
B1
330
2
100
AcDbEntity
  8
GEB-KONTUR-A
 48
25.0
100
AcDbLine
 10
-81.54673371224385
 20
338.5
 30
0.0
 11
-71.4532662877557
 21
338.5
 31
0.0
  0
SPLINE
  5
B2
330
2
100
AcDbEntity
  8
GEB-KONTUR-A
 48
25.0
100
AcDbSpline
210
0.0
220
0.0
230
1.0
 70
     8
 71
     3
 72
    30
 73
    26
 74
     0
 42
0.0000000001
 43
0.0000000001
 40
-1.843484145447361
 40
-1.843484145447361
 40
-1.843484145447361
 40
-1.843484145447361
 40
-1.620789439777083
 40
-1.620789439777083
 40
-1.398094734106805
 40
-1.398094734106805
 40
-1.273165492988613
 40
-1.273165492988613
 40
-1.148236251870422
 40
-1.148236251870422
 40
-1.034989162297051
 40
-1.034989162297051
 40
-0.921742072723681
 40
-0.921742072723681
 40
-0.8084949831503106
 40
-0.8084949831503106
 40
-0.6952478935769402
 40
-0.6952478935769402
 40
-0.5703186524587487
 40
-0.5703186524587487
 40
-0.4453894113405572
 40
-0.4453894113405572
 40
-0.2226947056702784
 40
-0.2226947056702784
 40
0.0
 40
0.0
 40
0.0
 40
0.0
 10
-81.54673371224385
 20
338.5
 30
0.0
 10
-81.54673371224385
 20
337.7576843144325
 30
0.0
 10
-81.45488219444827
 20
336.9534180549304
 30
0.0
 10
-81.06303494218559
 20
335.4096716530826
 30
0.0
 10
-80.76370133826776
 20
334.6696866160364
 30
0.0
 10
-80.19689819252192
 20
333.6836889685762
 30
0.0
 10
-79.94431332409596
 20
333.3137942000524
 30
0.0
 10
-79.36469350630921
 20
332.6400039426498
 30
0.0
 10
-79.03692733868945
 20
332.3365794618014
 30
0.0
 10
-78.40018437509377
 20
331.8816918336513
 30
0.0
 10
-78.04231393722455
 20
331.6835155096831
 30
0.0
 10
-77.28124129126121
 20
331.4160314220633
 30
0.0
 10
-76.87749029857769
 20
331.3480633270556
 30
0.0
 10
-76.1225097014219
 20
331.3480633270556
 30
0.0
 10
-75.71875870873833
 20
331.4160314220633
 30
0.0
 10
-74.957686062775
 20
331.6835155096831
 30
0.0
 10
-74.59981562490577
 20
331.8816918336513
 30
0.0
 10
-73.96307266131009
 20
332.3365794618014
 30
0.0
 10
-73.63530649369036
 20
332.6400039426498
 30
0.0
 10
-73.05568667590361
 20
333.3137942000524
 30
0.0
 10
-72.80310180747765
 20
333.6836889685762
 30
0.0
 10
-72.23629866173181
 20
334.6696866160364
 30
0.0
 10
-71.936965057814
 20
335.4096716530826
 30
0.0
 10
-71.54511780555134
 20
336.9534180549304
 30
0.0
 10
-71.4532662877557
 20
337.7576843144325
 30
0.0
 10
-71.4532662877557
 20
338.5
 30
0.0
  0
LINE
  5
B3
330
2
100
AcDbEntity
  8
GEB-KONTUR-A
 48
25.0
100
AcDbLine
 10
-87.19999999999982
 20
322.3165807537309
 30
0.0
 11
-65.79999999999981
 21
322.3165807537309
 31
0.0
  0
LINE
  5
B4
330
2
100
AcDbEntity
  8
GEB-KONTUR-A
 48
25.0
100
AcDbLine
 10
25.12499999999989
 20
263.2677765401681
 30
0.0
 11
25.12499999999994
 21
270.0
 31
0.0
  0
LINE
  5
B5
330
2
100
AcDbEntity
  8
GEB-KONTUR-A
 48
25.0
100
AcDbLine
 10
25.12499999999983
 20
244.85
 30
0.0
 11
25.12499999999986
 21
251.0004111886599
 31
0.0
  0
LINE
  5
B6
330
2
100
AcDbEntity
  8
GEB-KONTUR-A
 48
25.0
100
AcDbLine
 10
-25.12500000000017
 20
251.00041118866
 30
0.0
 11
-25.12500000000017
 21
244.8500000000001
 31
0.0
  0
LINE
  5
B7
330
2
100
AcDbEntity
  8
GEB-KONTUR-A
 48
25.0
100
AcDbLine
 10
-25.12500000000017
 20
244.8500000000001
 30
0.0
 11
-25.12500000000034
 21
170.0000000000002
 31
0.0
  0
LINE
  5
B8
330
2
100
AcDbEntity
  8
GEB-KONTUR-A
 48
25.0
100
AcDbLine
 10
25.12499999999983
 20
244.8500000000001
 30
0.0
 11
25.12499999999966
 21
170.0
 31
0.0
  0
CIRCLE
  5
B9
330
2
100
AcDbEntity
  8
GEB-KONTUR-A
 48
25.0
100
AcDbCircle
 10
0.0000000000000284
 20
270.0000000000001
 30
0.0
 40
25.125
  0
LINE
  5
BA
330
2
100
AcDbEntity
  8
GEB-KONTUR-A
 48
25.0
100
AcDbLine
 10
25.12499999999966
 20
170.0
 30
0.0
 11
-25.12500000000031
 21
170.0000000000002
 31
0.0
  0
CIRCLE
  5
BB
330
2
100
AcDbEntity
  8
GEB-KONTUR-A
 48
25.0
100
AcDbCircle
 10
0.0000000000000284
 20
270.0000000000001
 30
0.0
 40
21.975
  0
LINE
  5
BC
330
2
100
AcDbEntity
  8
GEB-KONTUR-A
 48
25.0
100
AcDbLine
 10
-209.7500000000002
 20
686.0000000000002
 30
0.0
 11
-207.7500000000003
 21
686.0000000000002
 31
0.0
  0
LINE
  5
BD
330
2
100
AcDbEntity
  8
GEB-KONTUR-A
 48
25.0
100
AcDbLine
 10
-209.7500000000003
 20
819.0
 30
0.0
 11
-207.7500000000003
 21
819.0
 31
0.0
  0
LINE
  5
BE
330
2
100
AcDbEntity
  8
GEB-KONTUR-A
 48
25.0
100
AcDbLine
 10
-207.7500000000003
 20
814.9494897427828
 30
0.0
 11
-207.7500000000003
 21
819.0
 31
0.0
  0
LINE
  5
BF
330
2
100
AcDbEntity
  8
GEB-KONTUR-A
 48
25.0
100
AcDbLine
 10
-207.7500000000003
 20
793.9999999999997
 30
0.0
 11
-207.7500000000003
 21
805.9999999999995
 31
0.0
  0
LINE
  5
C0
330
2
100
AcDbEntity
  8
GEB-KONTUR-A
 48
25.0
100
AcDbLine
 10
-207.7500000000002
 20
719.949489742783
 30
0.0
 11
-207.7500000000003
 21
785.0505102572165
 31
0.0
  0
LINE
  5
C1
330
2
100
AcDbEntity
  8
GEB-KONTUR-A
 48
25.0
100
AcDbLine
 10
-207.7500000000003
 20
686.0000000000002
 30
0.0
 11
-207.7500000000003
 21
690.0505102572169
 31
0.0
  0
LINE
  5
C2
330
2
100
AcDbEntity
  8
GEB-KONTUR-A
 48
25.0
100
AcDbLine
 10
-209.7500000000003
 20
819.0
 30
0.0
 11
-209.7500000000002
 21
686.0000000000002
 31
0.0
  0
LINE
  5
C3
330
2
100
AcDbEntity
  8
GEB-KONTUR-A
 48
25.0
100
AcDbLine
 10
-210.0
 20
716.0000000000002
 30
0.0
 11
-209.7500000000002
 21
716.0000000000002
 31
0.0
  0
LINE
  5
C4
330
2
100
AcDbEntity
  8
GEB-KONTUR-A
 48
25.0
100
AcDbLine
 10
-209.7500000000002
 20
789.0
 30
0.0
 11
-210.0
 21
789.0
 31
0.0
  0
LINE
  5
C5
330
2
100
AcDbEntity
  8
GEB-KONTUR-A
 48
25.0
100
AcDbLine
 10
209.7499999999994
 20
818.9999999999997
 30
0.0
 11
207.7499999999995
 21
818.9999999999997
 31
0.0
  0
LINE
  5
C6
330
2
100
AcDbEntity
  8
GEB-KONTUR-A
 48
25.0
100
AcDbLine
 10
209.7499999999995
 20
686.0
 30
0.0
 11
207.7499999999995
 21
686.0
 31
0.0
  0
LINE
  5
C7
330
2
100
AcDbEntity
  8
GEB-KONTUR-A
 48
25.0
100
AcDbLine
 10
207.7499999999995
 20
690.0505102572171
 30
0.0
 11
207.7499999999995
 21
686.0
 31
0.0
  0
LINE
  5
C8
330
2
100
AcDbEntity
  8
GEB-KONTUR-A
 48
25.0
100
AcDbLine
 10
207.7499999999995
 20
785.0505102572169
 30
0.0
 11
207.7499999999995
 21
719.9494897427834
 31
0.0
  0
LINE
  5
C9
330
2
100
AcDbEntity
  8
GEB-KONTUR-A
 48
25.0
100
AcDbLine
 10
207.7499999999995
 20
806.0
 30
0.0
 11
207.7499999999995
 21
794.0
 31
0.0
  0
LINE
  5
CA
330
2
100
AcDbEntity
  8
GEB-KONTUR-A
 48
25.0
100
AcDbLine
 10
207.7499999999995
 20
818.9999999999997
 30
0.0
 11
207.7499999999995
 21
814.9494897427835
 31
0.0
  0
LINE
  5
CB
330
2
100
AcDbEntity
  8
GEB-KONTUR-A
 48
25.0
100
AcDbLine
 10
209.7499999999995
 20
686.0
 30
0.0
 11
209.7499999999994
 21
818.9999999999997
 31
0.0
  0
LINE
  5
CC
330
2
100
AcDbEntity
  8
GEB-KONTUR-A
 48
25.0
100
AcDbLine
 10
209.9999999999996
 20
788.9999999999997
 30
0.0
 11
209.7499999999995
 21
788.9999999999997
 31
0.0
  0
LINE
  5
CD
330
2
100
AcDbEntity
  8
GEB-KONTUR-A
 48
25.0
100
AcDbLine
 10
209.7499999999995
 20
716.0
 30
0.0
 11
209.9999999999996
 21
716.0
 31
0.0
  0
LINE
  5
CE
330
2
100
AcDbEntity
  8
GEB-KONTUR-A
 48
25.0
100
AcDbLine
 10
-207.7500000000003
 20
690.0
 30
0.0
 11
207.7499999999995
 21
690.0
 31
0.0
  0
LINE
  5
CF
330
2
100
AcDbEntity
  8
GEB-KONTUR-A
 48
25.0
100
AcDbLine
 10
-207.7500000000003
 20
690.0505102572169
 30
0.0
 11
-207.7500000000003
 21
692.4999999999999
 31
0.0
  0
LINE
  5
D0
330
2
100
AcDbEntity
  8
GEB-KONTUR-A
 48
25.0
100
AcDbLine
 10
-207.7500000000003
 20
717.4999999999999
 30
0.0
 11
-207.7500000000003
 21
692.4999999999999
 31
0.0
  0
LINE
  5
D1
330
2
100
AcDbEntity
  8
GEB-KONTUR-A
 48
25.0
100
AcDbLine
 10
-207.7500000000003
 20
717.4999999999999
 30
0.0
 11
-207.7500000000003
 21
719.949489742783
 31
0.0
  0
LINE
  5
D2
330
2
100
AcDbEntity
  8
GEB-KONTUR-A
 48
25.0
100
AcDbLine
 10
-207.7500000000003
 20
720.0
 30
0.0
 11
207.7499999999995
 21
720.0
 31
0.0
  0
LINE
  5
D3
330
2
100
AcDbEntity
  8
GEB-KONTUR-A
 48
25.0
100
AcDbLine
 10
207.7499999999995
 20
692.4999999999999
 30
0.0
 11
207.7499999999995
 21
690.0505102572169
 31
0.0
  0
LINE
  5
D4
330
2
100
AcDbEntity
  8
GEB-KONTUR-A
 48
25.0
100
AcDbLine
 10
207.7499999999995
 20
692.4999999999999
 30
0.0
 11
207.7499999999995
 21
717.4999999999999
 31
0.0
  0
LINE
  5
D5
330
2
100
AcDbEntity
  8
GEB-KONTUR-A
 48
25.0
100
AcDbLine
 10
207.7499999999995
 20
719.949489742783
 30
0.0
 11
207.7499999999995
 21
717.4999999999999
 31
0.0
  0
LINE
  5
D6
330
2
100
AcDbEntity
  8
GEB-KONTUR-A
 48
25.0
100
AcDbLine
 10
-207.7500000000003
 20
794.0
 30
0.0
 11
-207.7500000000003
 21
787.5
 31
0.0
  0
LINE
  5
D7
330
2
100
AcDbEntity
  8
GEB-KONTUR-A
 48
25.0
100
AcDbLine
 10
207.7499999999995
 20
793.9999999999997
 30
0.0
 11
-207.7500000000003
 21
794.0
 31
0.0
  0
LINE
  5
D8
330
2
100
AcDbEntity
  8
GEB-KONTUR-A
 48
25.0
100
AcDbLine
 10
-207.7500000000003
 20
806.0000000000002
 30
0.0
 11
207.7499999999995
 21
806.0
 31
0.0
  0
LINE
  5
D9
330
2
100
AcDbEntity
  8
GEB-KONTUR-A
 48
25.0
100
AcDbLine
 10
-207.7500000000003
 20
812.5
 30
0.0
 11
-207.7500000000003
 21
806.0000000000002
 31
0.0
  0
LINE
  5
DA
330
2
100
AcDbEntity
  8
GEB-KONTUR-A
 48
25.0
100
AcDbLine
 10
-207.7500000000003
 20
812.5
 30
0.0
 11
-207.7500000000003
 21
814.949489742783
 31
0.0
  0
LINE
  5
DB
330
2
100
AcDbEntity
  8
GEB-KONTUR-A
 48
25.0
100
AcDbLine
 10
-207.7500000000003
 20
815.0
 30
0.0
 11
207.7499999999995
 21
815.0
 31
0.0
  0
LINE
  5
DC
330
2
100
AcDbEntity
  8
GEB-KONTUR-A
 48
25.0
100
AcDbLine
 10
-207.7500000000003
 20
785.0
 30
0.0
 11
207.7499999999995
 21
785.0
 31
0.0
  0
LINE
  5
DD
330
2
100
AcDbEntity
  8
GEB-KONTUR-A
 48
25.0
100
AcDbLine
 10
-207.7500000000003
 20
785.0505102572169
 30
0.0
 11
-207.7500000000003
 21
787.5
 31
0.0
  0
LINE
  5
DE
330
2
100
AcDbEntity
  8
GEB-KONTUR-A
 48
25.0
100
AcDbLine
 10
207.7499999999995
 20
806.0
 30
0.0
 11
207.7499999999995
 21
812.5
 31
0.0
  0
LINE
  5
DF
330
2
100
AcDbEntity
  8
GEB-KONTUR-A
 48
25.0
100
AcDbLine
 10
207.7499999999995
 20
814.949489742783
 30
0.0
 11
207.7499999999995
 21
812.5
 31
0.0
  0
LINE
  5
E0
330
2
100
AcDbEntity
  8
GEB-KONTUR-A
 48
25.0
100
AcDbLine
 10
207.7499999999995
 20
787.5
 30
0.0
 11
207.7499999999995
 21
785.0505102572169
 31
0.0
  0
LINE
  5
E1
330
2
100
AcDbEntity
  8
GEB-KONTUR-A
 48
25.0
100
AcDbLine
 10
207.7499999999995
 20
787.5
 30
0.0
 11
207.7499999999995
 21
793.9999999999997
 31
0.0
  0
LINE
  5
E2
330
2
100
AcDbEntity
  8
GEB-KONTUR-A
 48
25.0
100
AcDbLine
 10
30.42666352810565
 20
261.8472000792708
 30
0.0
 11
24.26888638551282
 21
263.4971714917993
 31
0.0
  0
LINE
  5
E3
330
2
100
AcDbEntity
  8
GEB-KONTUR-A
 48
25.0
100
AcDbLine
 10
24.26888638551285
 20
276.502828508201
 30
0.0
 11
30.42666352810565
 21
278.1527999207296
 31
0.0
  0
ARC
  5
E4
330
2
100
AcDbEntity
  8
GEB-KONTUR-A
 48
25.0
100
AcDbCircle
 10
0.0
 20
270.0000000000001
 30
0.0
 40
31.49999999999999
100
AcDbArc
 50
15.00000000000116
 51
344.9999999999989
  0
ARC
  5
E5
330
2
100
AcDbEntity
  8
GEB-KONTUR-A
 48
25.0
100
AcDbCircle
 10
0.0000000000076739
 20
270.0000000000021
 30
0.0
 40
29.99999999999212
100
AcDbArc
 50
11.71976030578861
 51
15.00000000000116
  0
ARC
  5
E6
330
2
100
AcDbEntity
  8
GEB-KONTUR-A
 48
25.0
100
AcDbCircle
 10
31.33289006778659
 20
276.5000000000002
 30
0.0
 40
2.0
100
AcDbArc
 50
191.7197603057889
 51
270.0000000000017
  0
LINE
  5
E7
330
2
100
AcDbEntity
  8
GEB-KONTUR-A
 48
25.0
100
AcDbLine
 10
31.33289006778659
 20
274.5000000000002
 30
0.0
 11
45.00289006778658
 21
274.5000000000002
 31
0.0
  0
LINE
  5
E8
330
2
100
AcDbEntity
  8
GEB-KONTUR-A
 48
25.0
100
AcDbLine
 10
45.00289006778658
 20
274.5000000000002
 30
0.0
 11
45.00289006778658
 21
273.0000000000001
 31
0.0
  0
LINE
  5
E9
330
2
100
AcDbEntity
  8
GEB-KONTUR-A
 48
25.0
100
AcDbLine
 10
45.00289006778658
 20
273.0000000000001
 30
0.0
 11
31.33289006778659
 21
273.0000000000001
 31
0.0
  0
ARC
  5
EA
330
2
100
AcDbEntity
  8
GEB-KONTUR-A
 48
25.0
100
AcDbCircle
 10
31.33289006778659
 20
276.5000000000002
 30
0.0
 40
3.49999999999999
100
AcDbArc
 50
191.7197603057889
 51
270.0
  0
ARC
  5
EB
330
2
100
AcDbEntity
  8
GEB-KONTUR-A
 48
25.0
100
AcDbCircle
 10
-0.0000000000115108
 20
270.0000000000029
 30
0.0
 40
28.50000000001181
100
AcDbArc
 50
344.9999999999989
 51
348.2802396942111
  0
ARC
  5
EC
330
2
100
AcDbEntity
  8
GEB-KONTUR-A
 48
25.0
100
AcDbCircle
 10
31.33289006778659
 20
263.5000000000002
 30
0.0
 40
3.500000000000005
100
AcDbArc
 50
90.0
 51
168.2802396942111
  0
LINE
  5
ED
330
2
100
AcDbEntity
  8
GEB-KONTUR-A
 48
25.0
100
AcDbLine
 10
31.33289006778659
 20
267.0000000000002
 30
0.0
 11
45.00289006778658
 21
267.0000000000002
 31
0.0
  0
LINE
  5
EE
330
2
100
AcDbEntity
  8
GEB-KONTUR-A
 48
25.0
100
AcDbLine
 10
45.00289006778658
 20
267.0000000000002
 30
0.0
 11
45.00289006778658
 21
265.5000000000001
 31
0.0
  0
LINE
  5
EF
330
2
100
AcDbEntity
  8
GEB-KONTUR-A
 48
25.0
100
AcDbLine
 10
45.00289006778658
 20
265.5000000000001
 30
0.0
 11
31.33289006778659
 21
265.5000000000001
 31
0.0
  0
ARC
  5
F0
330
2
100
AcDbEntity
  8
GEB-KONTUR-A
 48
25.0
100
AcDbCircle
 10
31.33289006778659
 20
263.5000000000002
 30
0.0
 40
1.999999999999999
100
AcDbArc
 50
90.0
 51
168.2802396942111
  0
ARC
  5
F1
330
2
100
AcDbEntity
  8
GEB-KONTUR-A
 48
25.0
100
AcDbCircle
 10
-0.0000000000070486
 20
270.0000000000018
 30
0.0
 40
30.00000000000721
100
AcDbArc
 50
344.9999999999989
 51
348.2802396942111
  0
ARC
  5
F2
330
2
100
AcDbEntity
  8
GEB-KONTUR-A
 48
25.0
100
AcDbCircle
 10
-0.0000000000055707
 20
269.9999999999989
 30
0.0
 40
28.50000000000572
100
AcDbArc
 50
11.71976030578894
 51
15.00000000000116
  0
LINE
  5
F3
330
2
100
AcDbEntity
  8
GEB-KONTUR-A
 48
25.0
100
AcDbLine
 10
7.500000000000028
 20
305.5000000000001
 30
0.0
 11
7.500000000000056
 21
355.5
 31
0.0
  0
LINE
  5
F4
330
2
100
AcDbEntity
  8
GEB-KONTUR-A
 48
25.0
100
AcDbLine
 10
7.500000000000028
 20
303.5000000000001
 30
0.0
 11
7.500000000000028
 21
305.5000000000001
 31
0.0
  0
LINE
  5
F5
330
2
100
AcDbEntity
  8
GEB-KONTUR-A
 48
25.0
100
AcDbLine
 10
7.500000000000028
 20
303.5000000000001
 30
0.0
 11
-7.499999999999971
 21
303.5000000000001
 31
0.0
  0
LINE
  5
F6
330
2
100
AcDbEntity
  8
GEB-KONTUR-A
 48
25.0
100
AcDbLine
 10
7.500000000000028
 20
301.5
 30
0.0
 11
7.500000000000028
 21
303.5000000000001
 31
0.0
  0
LINE
  5
F7
330
2
100
AcDbEntity
  8
GEB-KONTUR-A
 48
25.0
100
AcDbLine
 10
0.0000000000000284
 20
301.5
 30
0.0
 11
-7.499999999999971
 21
301.5000000000002
 31
0.0
  0
LINE
  5
F8
330
2
100
AcDbEntity
  8
GEB-KONTUR-A
 48
25.0
100
AcDbLine
 10
7.500000000000028
 20
301.5
 30
0.0
 11
0.0000000000000284
 21
301.5
 31
0.0
  0
LINE
  5
F9
330
2
100
AcDbEntity
  8
GEB-KONTUR-A
 48
25.0
100
AcDbLine
 10
-7.499999999999943
 20
355.5
 30
0.0
 11
-7.499999999999971
 21
305.5000000000001
 31
0.0
  0
LINE
  5
FA
330
2
100
AcDbEntity
  8
GEB-KONTUR-A
 48
25.0
100
AcDbLine
 10
-7.499999999999971
 20
305.5000000000001
 30
0.0
 11
-7.499999999999971
 21
303.5000000000001
 31
0.0
  0
LINE
  5
FB
330
2
100
AcDbEntity
  8
GEB-KONTUR-A
 48
25.0
100
AcDbLine
 10
-7.499999999999971
 20
303.5000000000001
 30
0.0
 11
-7.499999999999971
 21
301.5000000000002
 31
0.0
  0
LINE
  5
FC
330
2
100
AcDbEntity
  8
GEB-KONTUR-A
 48
25.0
100
AcDbLine
 10
2.000000000000056
 20
359.5
 30
0.0
 11
-1.999999999999914
 21
359.5
 31
0.0
  0
LINE
  5
FD
330
2
100
AcDbEntity
  8
GEB-KONTUR-A
 48
25.0
100
AcDbLine
 10
-1.999999999999914
 20
355.5
 30
0.0
 11
-7.499999999999943
 21
355.5
 31
0.0
  0
LINE
  5
FE
330
2
100
AcDbEntity
  8
GEB-KONTUR-A
 48
25.0
100
AcDbLine
 10
-1.999999999999914
 20
355.5
 30
0.0
 11
-1.999999999999914
 21
359.5
 31
0.0
  0
LINE
  5
FF
330
2
100
AcDbEntity
  8
GEB-KONTUR-A
 48
25.0
100
AcDbLine
 10
7.500000000000056
 20
355.5
 30
0.0
 11
2.000000000000056
 21
355.5
 31
0.0
  0
LINE
  5
100
330
2
100
AcDbEntity
  8
GEB-KONTUR-A
 48
25.0
100
AcDbLine
 10
2.000000000000056
 20
359.5
 30
0.0
 11
2.000000000000056
 21
355.5
 31
0.0
  0
CIRCLE
  5
101
330
2
100
AcDbEntity
  8
GEB-KONTUR-A
 48
25.0
100
AcDbCircle
 10
0.0000000000000284
 20
318.5000000000001
 30
0.0
 40
3.249999999999999
  0
LINE
  5
102
330
2
100
AcDbEntity
  8
GEB-KONTUR-A
 48
25.0
100
AcDbLine
 10
41.1678900677866
 20
267.0000000000002
 30
0.0
 11
41.1678900677866
 21
273.0000000000001
 31
0.0
  0
LINE
  5
103
330
2
100
AcDbEntity
  8
GEB-KONTUR-A
 48
25.0
100
AcDbLine
 10
35.16789006778657
 20
267.0000000000002
 30
0.0
 11
35.16789006778657
 21
273.0000000000001
 31
0.0
  0
LINE
  5
104
330
2
100
AcDbEntity
  8
GEB-KONTUR-A
 48
25.0
100
AcDbLine
 10
41.16789006778657
 20
250.0000000000001
 30
0.0
 11
41.16789006778657
 21
265.5000000000001
 31
0.0
  0
LINE
  5
105
330
2
100
AcDbEntity
  8
GEB-KONTUR-A
 48
25.0
100
AcDbLine
 10
35.16789006778657
 20
250.0000000000001
 30
0.0
 11
35.16789006778657
 21
265.5000000000001
 31
0.0
  0
LINE
  5
106
330
2
100
AcDbEntity
  8
GEB-KONTUR-A
 48
25.0
100
AcDbLine
 10
41.16789006778657
 20
274.5000000000002
 30
0.0
 11
41.1678900677866
 21
290.0000000000001
 31
0.0
  0
LINE
  5
107
330
2
100
AcDbEntity
  8
GEB-KONTUR-A
 48
25.0
100
AcDbLine
 10
35.16789006778657
 20
274.5000000000002
 30
0.0
 11
35.1678900677866
 21
290.0000000000001
 31
0.0
  0
LINE
  5
108
330
2
100
AcDbEntity
  8
GEB-KONTUR-A
 48
25.0
100
AcDbLine
 10
35.16789006778663
 20
290.0000000000001
 30
0.0
 11
41.1678900677866
 21
290.0000000000001
 31
0.0
  0
LINE
  5
109
330
2
100
AcDbEntity
  8
GEB-KONTUR-A
 48
25.0
100
AcDbLine
 10
33.16789006778658
 20
250.0000000000001
 30
0.0
 11
33.16789006778658
 21
247.0000000000002
 31
0.0
  0
LINE
  5
10A
330
2
100
AcDbEntity
  8
GEB-KONTUR-A
 48
25.0
100
AcDbLine
 10
43.16789006778657
 20
250.0000000000001
 30
0.0
 11
43.16789006778657
 21
247.0000000000002
 31
0.0
  0
LINE
  5
10B
330
2
100
AcDbEntity
  8
GEB-KONTUR-A
 48
25.0
100
AcDbLine
 10
43.16789006778657
 20
250.0000000000001
 30
0.0
 11
33.16789006778658
 21
250.0000000000001
 31
0.0
  0
LINE
  5
10C
330
2
100
AcDbEntity
  8
GEB-KONTUR-A
 48
25.0
100
AcDbLine
 10
37.73424528830981
 20
245.4600000000003
 30
0.0
 11
38.60153484726331
 21
245.4600000000003
 31
0.0
  0
ARC
  5
10D
330
2
100
AcDbEntity
  8
GEB-KONTUR-A
 48
25.0
100
AcDbCircle
 10
38.60153484726334
 20
253.0000000000001
 30
0.0
 40
7.539999999999996
100
AcDbArc
 50
270.0
 51
307.2732828440305
  0
ARC
  5
10E
330
2
100
AcDbEntity
  8
GEB-KONTUR-A
 48
25.0
100
AcDbCircle
 10
37.73424528830984
 20
253.0000000000001
 30
0.0
 40
7.539999999999999
100
AcDbArc
 50
232.7267171559694
 51
270.0
  0
LINE
  5
10F
330
2
100
AcDbEntity
  8
GEB-KONTUR-A
 48
25.0
100
AcDbLine
 10
43.16789006778657
 20
247.0000000000002
 30
0.0
 11
33.16789006778658
 21
247.0000000000002
 31
0.0
  0
LINE
  5
110
330
2
100
AcDbEntity
  8
GEB-KONTUR-A
 48
25.0
100
AcDbLine
 10
-209.4999999999999
 20
358.0
 30
0.0
 11
-209.4999999999999
 21
373.5
 31
0.0
  0
LINE
  5
111
330
2
100
AcDbEntity
  8
GEB-KONTUR-A
 48
25.0
100
AcDbLine
 10
-209.4999999999999
 20
296.5
 30
0.0
 11
-209.4999999999999
 21
358.0
 31
0.0
  0
LINE
  5
112
330
2
100
AcDbEntity
  8
GEB-KONTUR-A
 48
25.0
100
AcDbLine
 10
-209.4999999999999
 20
358.0
 30
0.0
 11
-207.4999999999999
 21
358.0
 31
0.0
  0
LINE
  5
113
330
2
100
AcDbEntity
  8
GEB-KONTUR-A
 48
25.0
100
AcDbLine
 10
-209.4999999999999
 20
296.5
 30
0.0
 11
-209.4999999999999
 21
293.5000000000001
 31
0.0
  0
LINE
  5
114
330
2
100
AcDbEntity
  8
GEB-KONTUR-A
 48
25.0
100
AcDbLine
 10
-209.4999999999999
 20
376.5
 30
0.0
 11
-209.4999999999999
 21
373.5
 31
0.0
  0
LINE
  5
115
330
2
100
AcDbEntity
  8
GEB-KONTUR-A
 48
25.0
100
AcDbLine
 10
-209.4999999999999
 20
376.5
 30
0.0
 11
-207.4999999999999
 21
376.5
 31
0.0
  0
LINE
  5
116
330
2
100
AcDbEntity
  8
GEB-KONTUR-A
 48
25.0
100
AcDbLine
 10
-209.4999999999999
 20
293.5000000000001
 30
0.0
 11
-207.4999999999999
 21
293.5000000000001
 31
0.0
  0
LINE
  5
117
330
2
100
AcDbEntity
  8
GEB-KONTUR-A
 48
25.0
100
AcDbLine
 10
-207.4999999999999
 20
296.5
 30
0.0
 11
-207.4999999999999
 21
293.5000000000001
 31
0.0
  0
LINE
  5
118
330
2
100
AcDbEntity
  8
GEB-KONTUR-A
 48
25.0
100
AcDbLine
 10
-207.4999999999999
 20
296.5
 30
0.0
 11
-207.4999999999999
 21
358.0
 31
0.0
  0
LINE
  5
119
330
2
100
AcDbEntity
  8
GEB-KONTUR-A
 48
25.0
100
AcDbLine
 10
-207.4999999999999
 20
358.0
 30
0.0
 11
-207.4999999999999
 21
373.5
 31
0.0
  0
LINE
  5
11A
330
2
100
AcDbEntity
  8
GEB-KONTUR-A
 48
25.0
100
AcDbLine
 10
-207.4999999999999
 20
376.5
 30
0.0
 11
-207.4999999999999
 21
373.5
 31
0.0
  0
CIRCLE
  5
11B
330
2
100
AcDbEntity
  8
GEB-KONTUR-A
 48
25.0
100
AcDbCircle
 10
-38.24999999999983
 20
351.0
 30
0.0
 40
2.800000000000013
  0
CIRCLE
  5
11C
330
2
100
AcDbEntity
  8
GEB-KONTUR-A
 48
25.0
100
AcDbCircle
 10
-76.49999999999983
 20
358.5
 30
0.0
 40
2.800000000000013
  0
CIRCLE
  5
11D
330
2
100
AcDbEntity
  8
GEB-KONTUR-A
 48
25.0
100
AcDbCircle
 10
38.2500000000002
 20
351.0
 30
0.0
 40
2.800000000000013
  0
LINE
  5
11E
330
2
100
AcDbEntity
  8
GEB-KONTUR-A
 48
25.0
100
AcDbLine
 10
207.5000000000002
 20
357.9999999999998
 30
0.0
 11
207.5000000000002
 21
373.5
 31
0.0
  0
LINE
  5
11F
330
2
100
AcDbEntity
  8
GEB-KONTUR-A
 48
25.0
100
AcDbLine
 10
209.5000000000003
 20
357.9999999999998
 30
0.0
 11
207.5000000000002
 21
357.9999999999998
 31
0.0
  0
LINE
  5
120
330
2
100
AcDbEntity
  8
GEB-KONTUR-A
 48
25.0
100
AcDbLine
 10
207.5000000000003
 20
296.4999999999999
 30
0.0
 11
207.5000000000003
 21
357.9999999999998
 31
0.0
  0
LINE
  5
121
330
2
100
AcDbEntity
  8
GEB-KONTUR-A
 48
25.0
100
AcDbLine
 10
207.5000000000003
 20
296.4999999999999
 30
0.0
 11
207.5000000000003
 21
293.5
 31
0.0
  0
LINE
  5
122
330
2
100
AcDbEntity
  8
GEB-KONTUR-A
 48
25.0
100
AcDbLine
 10
209.5000000000003
 20
376.5
 30
0.0
 11
207.5000000000002
 21
376.5
 31
0.0
  0
LINE
  5
123
330
2
100
AcDbEntity
  8
GEB-KONTUR-A
 48
25.0
100
AcDbLine
 10
207.5000000000003
 20
376.5
 30
0.0
 11
207.5000000000003
 21
373.5
 31
0.0
  0
LINE
  5
124
330
2
100
AcDbEntity
  8
GEB-KONTUR-A
 48
25.0
100
AcDbLine
 10
209.5000000000003
 20
293.5
 30
0.0
 11
207.5000000000003
 21
293.5
 31
0.0
  0
LINE
  5
125
330
2
100
AcDbEntity
  8
GEB-KONTUR-A
 48
25.0
100
AcDbLine
 10
209.5000000000003
 20
296.4999999999999
 30
0.0
 11
209.5000000000003
 21
293.5
 31
0.0
  0
LINE
  5
126
330
2
100
AcDbEntity
  8
GEB-KONTUR-A
 48
25.0
100
AcDbLine
 10
209.5000000000003
 20
296.4999999999999
 30
0.0
 11
209.5000000000003
 21
357.9999999999998
 31
0.0
  0
LINE
  5
127
330
2
100
AcDbEntity
  8
GEB-KONTUR-A
 48
25.0
100
AcDbLine
 10
209.5000000000003
 20
357.9999999999998
 30
0.0
 11
209.5000000000003
 21
373.5
 31
0.0
  0
LINE
  5
128
330
2
100
AcDbEntity
  8
GEB-KONTUR-A
 48
25.0
100
AcDbLine
 10
209.5000000000003
 20
376.5
 30
0.0
 11
209.5000000000003
 21
373.5
 31
0.0
  0
LINE
  5
129
330
2
100
AcDbEntity
  8
GEB-KONTUR-A
 48
25.0
100
AcDbLine
 10
205.5000000000003
 20
364.9641016151377
 30
0.0
 11
205.5000000000003
 21
363.0
 31
0.0
  0
LINE
  5
12A
330
2
100
AcDbEntity
  8
GEB-KONTUR-A
 48
25.0
100
AcDbLine
 10
205.5000000000003
 20
364.9641016151374
 30
0.0
 11
205.5000000000003
 21
364.9999999999998
 31
0.0
  0
ARC
  5
12B
330
2
100
AcDbEntity
  8
GEB-KONTUR-A
 48
25.0
100
AcDbCircle
 10
207.5000000000004
 20
363.0
 30
0.0
 40
2.000000000000113
100
AcDbArc
 50
228.590377890729
 51
269.9999999999951
  0
SPLINE
  5
12C
330
2
100
AcDbEntity
  8
GEB-KONTUR-A
 48
25.0
100
AcDbSpline
210
0.0
220
0.0
230
1.0
 70
     8
 71
     3
 72
    12
 73
     8
 74
     0
 42
0.0000000001
 43
0.0000000001
 40
0.8733726305727252
 40
0.8733726305727252
 40
0.8733726305727252
 40
0.8733726305727252
 40
0.8857824865786449
 40
0.8857824865786449
 40
0.9638557384190129
 40
0.9638557384190129
 40
1.04192899025938
 40
1.04192899025938
 40
1.04192899025938
 40
1.04192899025938
 10
206.1771243444681
 20
361.5
 30
0.0
 10
206.1455024017468
 20
361.5278879321377
 30
0.0
 10
206.115032353989
 20
361.5565405212651
 30
0.0
 10
205.9017936666943
 20
361.7697792085599
 30
0.0
 10
205.7454094410612
 20
362.003289412562
 30
0.0
 10
205.5447232562675
 20
362.5010887781002
 30
0.0
 10
205.5000000000003
 20
362.7648673331892
 30
0.0
 10
205.5000000000003
 20
363.0
 30
0.0
  0
LINE
  5
12D
330
2
100
AcDbEntity
  8
GEB-KONTUR-A
 48
25.0
100
AcDbLine
 10
39.5109520212921
 20
308.5
 30
0.0
 11
36.98904797870838
 21
308.5
 31
0.0
  0
LINE
  5
12E
330
2
100
AcDbEntity
  8
GEB-KONTUR-A
 48
25.0
100
AcDbLine
 10
-36.98904797870793
 20
308.5
 30
0.0
 11
-39.51095202129165
 21
308.5
 31
0.0
  0
CIRCLE
  5
12F
330
2
100
AcDbEntity
  8
GEB-KONTUR-A
 48
25.0
100
AcDbCircle
 10
138.8578643762693
 20
352.6421356237309
 30
0.0
 40
2.800000000000013
  0
CIRCLE
  5
130
330
2
100
AcDbEntity
  8
GEB-KONTUR-A
 48
25.0
100
AcDbCircle
 10
153.0000000000002
 20
358.5
 30
0.0
 40
2.800000000000013
  0
CIRCLE
  5
131
330
2
100
AcDbEntity
  8
GEB-KONTUR-A
 48
25.0
100
AcDbCircle
 10
133.0000000000002
 20
338.5
 30
0.0
 40
2.800000000000013
  0
CIRCLE
  5
132
330
2
100
AcDbEntity
  8
GEB-KONTUR-A
 48
25.0
100
AcDbCircle
 10
138.8578643762693
 20
324.3578643762689
 30
0.0
 40
2.800000000000013
  0
CIRCLE
  5
133
330
2
100
AcDbEntity
  8
GEB-KONTUR-A
 48
25.0
100
AcDbCircle
 10
167.1421356237312
 20
352.6421356237309
 30
0.0
 40
2.800000000000013
  0
CIRCLE
  5
134
330
2
100
AcDbEntity
  8
GEB-KONTUR-A
 48
25.0
100
AcDbCircle
 10
153.0000000000002
 20
318.5
 30
0.0
 40
2.800000000000013
  0
CIRCLE
  5
135
330
2
100
AcDbEntity
  8
GEB-KONTUR-A
 48
25.0
100
AcDbCircle
 10
173.0000000000003
 20
338.5
 30
0.0
 40
2.800000000000013
  0
CIRCLE
  5
136
330
2
100
AcDbEntity
  8
GEB-KONTUR-A
 48
25.0
100
AcDbCircle
 10
167.1421356237312
 20
324.3578643762689
 30
0.0
 40
2.800000000000013
  0
CIRCLE
  5
137
330
2
100
AcDbEntity
  8
GEB-KONTUR-A
 48
25.0
100
AcDbCircle
 10
76.50000000000023
 20
358.5
 30
0.0
 40
2.800000000000013
  0
CIRCLE
  5
138
330
2
100
AcDbEntity
  8
GEB-KONTUR-A
 48
25.0
100
AcDbCircle
 10
56.50000000000021
 20
338.5
 30
0.0
 40
2.800000000000013
  0
CIRCLE
  5
139
330
2
100
AcDbEntity
  8
GEB-KONTUR-A
 48
25.0
100
AcDbCircle
 10
62.35786437626929
 20
324.3578643762689
 30
0.0
 40
2.800000000000013
  0
CIRCLE
  5
13A
330
2
100
AcDbEntity
  8
GEB-KONTUR-A
 48
25.0
100
AcDbCircle
 10
96.50000000000023
 20
338.5
 30
0.0
 40
2.800000000000013
  0
CIRCLE
  5
13B
330
2
100
AcDbEntity
  8
GEB-KONTUR-A
 48
25.0
100
AcDbCircle
 10
90.64213562373119
 20
324.3578643762689
 30
0.0
 40
2.800000000000013
  0
CIRCLE
  5
13C
330
2
100
AcDbEntity
  8
GEB-KONTUR-A
 48
25.0
100
AcDbCircle
 10
24.10786437626925
 20
345.1421356237308
 30
0.0
 40
2.800000000000013
  0
CIRCLE
  5
13D
330
2
100
AcDbEntity
  8
GEB-KONTUR-A
 48
25.0
100
AcDbCircle
 10
18.2500000000002
 20
331.0
 30
0.0
 40
2.800000000000013
  0
CIRCLE
  5
13E
330
2
100
AcDbEntity
  8
GEB-KONTUR-A
 48
25.0
100
AcDbCircle
 10
24.10786437626925
 20
316.857864376269
 30
0.0
 40
2.800000000000013
  0
ARC
  5
13F
330
2
100
AcDbEntity
  8
GEB-KONTUR-A
 48
25.0
100
AcDbCircle
 10
52.39213562373115
 20
345.1421356237308
 30
0.0
 40
2.800000000000006
100
AcDbArc
 50
92.41555486938478
 51
236.7768309504144
  0
ARC
  5
140
330
2
100
AcDbEntity
  8
GEB-KONTUR-A
 48
25.0
100
AcDbCircle
 10
58.2500000000002
 20
331.0
 30
0.0
 40
2.800000000000009
100
AcDbArc
 50
186.6299339620616
 51
323.3700660379316
  0
CIRCLE
  5
141
330
2
100
AcDbEntity
  8
GEB-KONTUR-A
 48
25.0
100
AcDbCircle
 10
52.39213562373118
 20
316.857864376269
 30
0.0
 40
2.800000000000013
  0
ARC
  5
142
330
2
100
AcDbEntity
  8
GEB-KONTUR-A
 48
25.0
100
AcDbCircle
 10
-52.3921356237308
 20
345.1421356237308
 30
0.0
 40
2.800000000000006
100
AcDbArc
 50
303.2231690495828
 51
87.58444513061682
  0
ARC
  5
143
330
2
100
AcDbEntity
  8
GEB-KONTUR-A
 48
25.0
100
AcDbCircle
 10
-58.24999999999977
 20
331.0
 30
0.0
 40
2.79999999999999
100
AcDbArc
 50
216.6299339620612
 51
353.3700660379384
  0
CIRCLE
  5
144
330
2
100
AcDbEntity
  8
GEB-KONTUR-A
 48
25.0
100
AcDbCircle
 10
-52.3921356237308
 20
316.857864376269
 30
0.0
 40
2.800000000000013
  0
CIRCLE
  5
145
330
2
100
AcDbEntity
  8
GEB-KONTUR-A
 48
25.0
100
AcDbCircle
 10
-24.10786437626888
 20
345.1421356237311
 30
0.0
 40
2.800000000000013
  0
CIRCLE
  5
146
330
2
100
AcDbEntity
  8
GEB-KONTUR-A
 48
25.0
100
AcDbCircle
 10
-18.24999999999983
 20
331.0
 30
0.0
 40
2.800000000000013
  0
CIRCLE
  5
147
330
2
100
AcDbEntity
  8
GEB-KONTUR-A
 48
25.0
100
AcDbCircle
 10
-24.10786437626885
 20
316.857864376269
 30
0.0
 40
2.800000000000013
  0
CIRCLE
  5
148
330
2
100
AcDbEntity
  8
GEB-KONTUR-A
 48
25.0
100
AcDbCircle
 10
-167.1421356237308
 20
352.6421356237311
 30
0.0
 40
2.800000000000013
  0
CIRCLE
  5
149
330
2
100
AcDbEntity
  8
GEB-KONTUR-A
 48
25.0
100
AcDbCircle
 10
-152.9999999999998
 20
358.5
 30
0.0
 40
2.800000000000013
  0
CIRCLE
  5
14A
330
2
100
AcDbEntity
  8
GEB-KONTUR-A
 48
25.0
100
AcDbCircle
 10
-172.9999999999998
 20
338.5
 30
0.0
 40
2.800000000000013
  0
CIRCLE
  5
14B
330
2
100
AcDbEntity
  8
GEB-KONTUR-A
 48
25.0
100
AcDbCircle
 10
-167.1421356237308
 20
324.3578643762689
 30
0.0
 40
2.800000000000013
  0
CIRCLE
  5
14C
330
2
100
AcDbEntity
  8
GEB-KONTUR-A
 48
25.0
100
AcDbCircle
 10
-138.8578643762689
 20
352.6421356237311
 30
0.0
 40
2.800000000000013
  0
CIRCLE
  5
14D
330
2
100
AcDbEntity
  8
GEB-KONTUR-A
 48
25.0
100
AcDbCircle
 10
-152.9999999999998
 20
318.5000000000001
 30
0.0
 40
2.800000000000013
  0
CIRCLE
  5
14E
330
2
100
AcDbEntity
  8
GEB-KONTUR-A
 48
25.0
100
AcDbCircle
 10
-132.9999999999998
 20
338.5
 30
0.0
 40
2.800000000000013
  0
CIRCLE
  5
14F
330
2
100
AcDbEntity
  8
GEB-KONTUR-A
 48
25.0
100
AcDbCircle
 10
-138.8578643762689
 20
324.3578643762692
 30
0.0
 40
2.800000000000013
  0
CIRCLE
  5
150
330
2
100
AcDbEntity
  8
GEB-KONTUR-A
 48
25.0
100
AcDbCircle
 10
-96.49999999999984
 20
338.5
 30
0.0
 40
2.800000000000013
  0
CIRCLE
  5
151
330
2
100
AcDbEntity
  8
GEB-KONTUR-A
 48
25.0
100
AcDbCircle
 10
-90.64213562373078
 20
324.3578643762689
 30
0.0
 40
2.800000000000013
  0
CIRCLE
  5
152
330
2
100
AcDbEntity
  8
GEB-KONTUR-A
 48
25.0
100
AcDbCircle
 10
-56.4999999999998
 20
338.5
 30
0.0
 40
2.800000000000013
  0
CIRCLE
  5
153
330
2
100
AcDbEntity
  8
GEB-KONTUR-A
 48
25.0
100
AcDbCircle
 10
-62.35786437626882
 20
324.3578643762689
 30
0.0
 40
2.800000000000013
  0
CIRCLE
  5
154
330
2
100
AcDbEntity
  8
GEB-KONTUR-A
 48
25.0
100
AcDbCircle
 10
14.14213562373118
 20
324.3578643762689
 30
0.0
 40
2.800000000000013
  0
ARC
  5
155
330
2
100
AcDbEntity
  8
GEB-KONTUR-A
 48
25.0
100
AcDbCircle
 10
0.0000000000001705
 20
358.5
 30
0.0
 40
2.800000000000013
100
AcDbArc
 50
315.5846914027997
 51
224.4153085971877
  0
CIRCLE
  5
156
330
2
100
AcDbEntity
  8
GEB-KONTUR-A
 48
25.0
100
AcDbCircle
 10
-14.14213562373078
 20
352.6421356237309
 30
0.0
 40
2.800000000000013
  0
CIRCLE
  5
157
330
2
100
AcDbEntity
  8
GEB-KONTUR-A
 48
25.0
100
AcDbCircle
 10
-14.14213562373078
 20
324.3578643762689
 30
0.0
 40
2.800000000000013
  0
CIRCLE
  5
158
330
2
100
AcDbEntity
  8
GEB-KONTUR-A
 48
25.0
100
AcDbCircle
 10
0.0000000000001705
 20
318.5
 30
0.0
 40
2.800000000000013
  0
CIRCLE
  5
159
330
2
100
AcDbEntity
  8
GEB-KONTUR-A
 48
25.0
100
AcDbCircle
 10
20.00000000000023
 20
338.5
 30
0.0
 40
2.800000000000013
  0
CIRCLE
  5
15A
330
2
100
AcDbEntity
  8
GEB-KONTUR-A
 48
25.0
100
AcDbCircle
 10
14.14213562373112
 20
352.6421356237309
 30
0.0
 40
2.800000000000013
  0
CIRCLE
  5
15B
330
2
100
AcDbEntity
  8
GEB-KONTUR-A
 48
25.0
100
AcDbCircle
 10
-19.99999999999983
 20
338.5
 30
0.0
 40
2.800000000000013
  0
ARC
  5
15C
330
2
100
AcDbEntity
  8
GEB-KONTUR-A
 48
25.0
100
AcDbCircle
 10
100.5000000000002
 20
344.9999999999998
 30
0.0
 40
2.800000000000011
100
AcDbArc
 50
306.1585412491639
 51
84.14959485145912
  0
ARC
  5
15D
330
2
100
AcDbEntity
  8
GEB-KONTUR-A
 48
25.0
100
AcDbCircle
 10
-100.4999999999998
 20
345.0
 30
0.0
 40
2.800000000000018
100
AcDbArc
 50
95.85040514854574
 51
233.841458750831
  0
ARC
  5
15E
330
2
100
AcDbEntity
  8
GEB-KONTUR-A
 48
25.0
100
AcDbCircle
 10
38.2500000000002
 20
311.0
 30
0.0
 40
2.800000000000011
100
AcDbArc
 50
296.7655005767574
 51
243.2344994232427
  0
ARC
  5
15F
330
2
100
AcDbEntity
  8
GEB-KONTUR-A
 48
25.0
100
AcDbCircle
 10
-38.24999999999983
 20
311.0
 30
0.0
 40
2.800000000000011
100
AcDbArc
 50
296.7655005767574
 51
243.2344994232427
  0
SPLINE
  5
160
330
2
100
AcDbEntity
  8
GEB-KONTUR-A
 48
25.0
100
AcDbSpline
210
0.0
220
0.0
230
1.0
 70
     8
 71
     3
 72
    10
 73
     6
 74
     0
 42
0.0000000001
 43
0.0000000001
 40
2.027161005781672
 40
2.027161005781672
 40
2.027161005781672
 40
2.027161005781672
 40
2.154634052070362
 40
2.154634052070362
 40
2.282107098359064
 40
2.282107098359064
 40
2.282107098359064
 40
2.282107098359064
 10
-36.98904797870796
 20
308.5
 30
0.0
 10
-37.38198791721917
 20
308.3018086361152
 30
0.0
 10
-37.82508984570413
 20
308.2000000000001
 30
0.0
 10
-38.67491015429548
 20
308.1999999999999
 30
0.0
 10
-39.11801208278041
 20
308.3018086361152
 30
0.0
 10
-39.51095202129167
 20
308.5
 30
0.0
  0
SPLINE
  5
161
330
2
100
AcDbEntity
  8
GEB-KONTUR-A
 48
25.0
100
AcDbSpline
210
0.0
220
0.0
230
1.0
 70
     8
 71
     3
 72
    10
 73
     6
 74
     0
 42
0.0000000001
 43
0.0000000001
 40
2.027161005781669
 40
2.027161005781669
 40
2.027161005781669
 40
2.027161005781669
 40
2.154634052070368
 40
2.154634052070368
 40
2.282107098359058
 40
2.282107098359058
 40
2.282107098359058
 40
2.282107098359058
 10
39.51095202129207
 20
308.5
 30
0.0
 10
39.11801208278087
 20
308.3018086361152
 30
0.0
 10
38.67491015429584
 20
308.1999999999999
 30
0.0
 10
37.82508984570458
 20
308.1999999999999
 30
0.0
 10
37.38198791721953
 20
308.3018086361152
 30
0.0
 10
36.98904797870836
 20
308.5
 30
0.0
  0
ARC
  5
162
330
2
100
AcDbEntity
  8
GEB-KONTUR-A
 48
25.0
100
AcDbCircle
 10
207.5000000000004
 20
306.9999999999998
 30
0.0
 40
2.000000000000107
100
AcDbArc
 50
90.00000000000488
 51
131.4096221092709
  0
LINE
  5
163
330
2
100
AcDbEntity
  8
GEB-KONTUR-A
 48
25.0
100
AcDbLine
 10
205.5000000000003
 20
304.9999999999999
 30
0.0
 11
205.5000000000003
 21
305.0358983848621
 31
0.0
  0
SPLINE
  5
164
330
2
100
AcDbEntity
  8
GEB-KONTUR-A
 48
25.0
100
AcDbSpline
210
0.0
220
0.0
230
1.0
 70
     8
 71
     3
 72
    12
 73
     8
 74
     0
 42
0.0000000001
 43
0.0000000001
 40
0.4279712195580519
 40
0.4279712195580519
 40
0.4279712195580519
 40
0.4279712195580519
 40
0.50604447139842
 40
0.50604447139842
 40
0.584117723238788
 40
0.584117723238788
 40
0.5965275792447084
 40
0.5965275792447084
 40
0.5965275792447084
 40
0.5965275792447084
 10
205.5000000000003
 20
306.9999999999998
 30
0.0
 10
205.5000000000003
 20
307.2351326668106
 30
0.0
 10
205.5447232562674
 20
307.4989112218996
 30
0.0
 10
205.7454094410612
 20
307.9967105874378
 30
0.0
 10
205.9017936666943
 20
308.2302207914399
 30
0.0
 10
206.115032353989
 20
308.4434594787347
 30
0.0
 10
206.1455024017468
 20
308.4721120678621
 30
0.0
 10
206.1771243444681
 20
308.5
 30
0.0
  0
LINE
  5
165
330
2
100
AcDbEntity
  8
GEB-KONTUR-A
 48
25.0
100
AcDbLine
 10
205.5000000000003
 20
306.9999999999999
 30
0.0
 11
205.5000000000003
 21
305.0358983848622
 31
0.0
  0
LINE
  5
166
330
2
100
AcDbEntity
  8
GEB-KONTUR-A
 48
25.0
100
AcDbLine
 10
-205.5000000000001
 20
364.9641016151377
 30
0.0
 11
205.5000000000002
 21
364.9641016151374
 31
0.0
  0
LINE
  5
167
330
2
100
AcDbEntity
  8
GEB-KONTUR-A
 48
25.0
100
AcDbLine
 10
-205.5000000000001
 20
365.0
 30
0.0
 11
205.5000000000002
 21
364.9999999999998
 31
0.0
  0
LINE
  5
168
330
2
100
AcDbEntity
  8
GEB-KONTUR-A
 48
25.0
100
AcDbLine
 10
86.50000000000025
 20
304.9999999999999
 30
0.0
 11
205.5000000000003
 21
304.9999999999999
 31
0.0
  0
LINE
  5
169
330
2
100
AcDbEntity
  8
GEB-KONTUR-A
 48
25.0
100
AcDbLine
 10
7.499999999999886
 20
305.0
 30
0.0
 11
66.50000000000023
 21
305.0
 31
0.0
  0
LINE
  5
16A
330
2
100
AcDbEntity
  8
GEB-KONTUR-A
 48
25.0
100
AcDbLine
 10
-66.49999999999988
 20
305.0
 30
0.0
 11
-7.500000000000113
 21
305.0
 31
0.0
  0
LINE
  5
16B
330
2
100
AcDbEntity
  8
GEB-KONTUR-A
 48
25.0
100
AcDbLine
 10
-205.4999999999999
 20
305.0
 30
0.0
 11
-86.49999999999995
 21
305.0
 31
0.0
  0
LINE
  5
16C
330
2
100
AcDbEntity
  8
GEB-KONTUR-A
 48
25.0
100
AcDbLine
 10
-86.49999999999995
 20
305.0358983848622
 30
0.0
 11
-205.4999999999999
 21
305.0358983848622
 31
0.0
  0
LINE
  5
16D
330
2
100
AcDbEntity
  8
GEB-KONTUR-A
 48
25.0
100
AcDbLine
 10
-7.500000000000113
 20
305.0358983848622
 30
0.0
 11
-66.49999999999991
 21
305.0358983848622
 31
0.0
  0
LINE
  5
16E
330
2
100
AcDbEntity
  8
GEB-KONTUR-A
 48
25.0
100
AcDbLine
 10
66.50000000000023
 20
305.0358983848622
 30
0.0
 11
7.499999999999886
 21
305.0358983848622
 31
0.0
  0
LINE
  5
16F
330
2
100
AcDbEntity
  8
GEB-KONTUR-A
 48
25.0
100
AcDbLine
 10
205.5000000000003
 20
305.0358983848621
 30
0.0
 11
86.50000000000027
 21
305.0358983848622
 31
0.0
  0
LINE
  5
170
330
2
100
AcDbEntity
  8
GEB-KONTUR-A
 48
25.0
100
AcDbLine
 10
-205.5000000000001
 20
365.0
 30
0.0
 11
-205.5000000000001
 21
364.9641016151377
 31
0.0
  0
LINE
  5
171
330
2
100
AcDbEntity
  8
GEB-KONTUR-A
 48
25.0
100
AcDbLine
 10
-205.4999999999999
 20
363.0
 30
0.0
 11
-205.4999999999999
 21
364.9641016151377
 31
0.0
  0
SPLINE
  5
172
330
2
100
AcDbEntity
  8
GEB-KONTUR-A
 48
25.0
100
AcDbSpline
210
0.0
220
0.0
230
1.0
 70
     8
 71
     3
 72
    12
 73
     8
 74
     0
 42
0.0000000001
 43
0.0000000001
 40
0.4279712195580529
 40
0.4279712195580529
 40
0.4279712195580529
 40
0.4279712195580529
 40
0.5060444713984209
 40
0.5060444713984209
 40
0.5841177232387889
 40
0.5841177232387889
 40
0.5965275792447073
 40
0.5965275792447073
 40
0.5965275792447073
 40
0.5965275792447073
 10
-205.5000000000001
 20
363.0
 30
0.0
 10
-205.5000000000001
 20
362.7648673331892
 30
0.0
 10
-205.544723256267
 20
362.5010887781004
 30
0.0
 10
-205.7454094410609
 20
362.0032894125623
 30
0.0
 10
-205.9017936666939
 20
361.7697792085599
 30
0.0
 10
-206.1150323539886
 20
361.5565405212651
 30
0.0
 10
-206.1455024017464
 20
361.5278879321377
 30
0.0
 10
-206.1771243444677
 20
361.5
 30
0.0
  0
ARC
  5
173
330
2
100
AcDbEntity
  8
GEB-KONTUR-A
 48
25.0
100
AcDbCircle
 10
-207.5000000000001
 20
363.0
 30
0.0
 40
2.000000000000156
100
AcDbArc
 50
270.0000000000017
 51
311.4096221092698
  0
LINE
  5
174
330
2
100
AcDbEntity
  8
GEB-KONTUR-A
 48
25.0
100
AcDbLine
 10
-205.4999999999999
 20
305.0358983848623
 30
0.0
 11
-205.4999999999999
 21
307.0
 31
0.0
  0
LINE
  5
175
330
2
100
AcDbEntity
  8
GEB-KONTUR-A
 48
25.0
100
AcDbLine
 10
-205.4999999999999
 20
305.0358983848622
 30
0.0
 11
-205.4999999999999
 21
305.0
 31
0.0
  0
ARC
  5
176
330
2
100
AcDbEntity
  8
GEB-KONTUR-A
 48
25.0
100
AcDbCircle
 10
-207.5000000000001
 20
306.9999999999999
 30
0.0
 40
2.000000000000166
100
AcDbArc
 50
48.59037789072782
 51
89.99999999999511
  0
SPLINE
  5
177
330
2
100
AcDbEntity
  8
GEB-KONTUR-A
 48
25.0
100
AcDbSpline
210
0.0
220
0.0
230
1.0
 70
     8
 71
     3
 72
    12
 73
     8
 74
     0
 42
0.0000000001
 43
0.0000000001
 40
0.8733726305727229
 40
0.8733726305727229
 40
0.8733726305727229
 40
0.8733726305727229
 40
0.8857824865786438
 40
0.8857824865786438
 40
0.963855738419012
 40
0.963855738419012
 40
1.04192899025938
 40
1.04192899025938
 40
1.04192899025938
 40
1.04192899025938
 10
-206.1771243444677
 20
308.5000000000001
 30
0.0
 10
-206.1455024017464
 20
308.4721120678623
 30
0.0
 10
-206.1150323539886
 20
308.4434594787348
 30
0.0
 10
-205.9017936666939
 20
308.2302207914402
 30
0.0
 10
-205.7454094410609
 20
307.9967105874378
 30
0.0
 10
-205.544723256267
 20
307.4989112218998
 30
0.0
 10
-205.4999999999999
 20
307.2351326668108
 30
0.0
 10
-205.4999999999999
 20
306.9999999999999
 30
0.0
  0
LINE
  5
178
330
2
100
AcDbEntity
  8
GEB-KONTUR-A
 48
25.0
100
AcDbLine
 10
249.4999999999999
 20
0.0
 30
0.0
 11
249.4999999999999
 21
8.0
 31
0.0
  0
LINE
  5
179
330
2
100
AcDbEntity
  8
GEB-KONTUR-A
 48
25.0
100
AcDbLine
 10
249.4999999999999
 20
0.0
 30
0.0
 11
246.9999999999999
 21
0.0
 31
0.0
  0
LINE
  5
17A
330
2
100
AcDbEntity
  8
GEB-KONTUR-A
 48
25.0
100
AcDbLine
 10
178.9999999999999
 20
0.0
 30
0.0
 11
246.9999999999999
 21
0.0
 31
0.0
  0
LINE
  5
17B
330
2
100
AcDbEntity
  8
GEB-KONTUR-A
 48
25.0
100
AcDbLine
 10
178.9999999999998
 20
0.0
 30
0.0
 11
176.4999999999998
 21
0.0
 31
0.0
  0
LINE
  5
17C
330
2
100
AcDbEntity
  8
GEB-KONTUR-A
 48
25.0
100
AcDbLine
 10
176.4999999999998
 20
0.0
 30
0.0
 11
176.4999999999998
 21
8.0
 31
0.0
  0
LINE
  5
17D
330
2
100
AcDbEntity
  8
GEB-KONTUR-A
 48
25.0
100
AcDbLine
 10
249.4999999999999
 20
8.0
 30
0.0
 11
246.9999999999999
 21
8.0
 31
0.0
  0
LINE
  5
17E
330
2
100
AcDbEntity
  8
GEB-KONTUR-A
 48
25.0
100
AcDbLine
 10
178.9999999999999
 20
8.0
 30
0.0
 11
246.9999999999999
 21
8.0
 31
0.0
  0
LINE
  5
17F
330
2
100
AcDbEntity
  8
GEB-KONTUR-A
 48
25.0
100
AcDbLine
 10
178.9999999999998
 20
8.0
 30
0.0
 11
176.4999999999998
 21
8.0
 31
0.0
  0
LINE
  5
180
330
2
100
AcDbEntity
  8
GEB-KONTUR-A
 48
25.0
100
AcDbLine
 10
247.5
 20
8.0
 30
0.0
 11
247.5
 21
230.0
 31
0.0
  0
LINE
  5
181
330
2
100
AcDbEntity
  8
GEB-KONTUR-A
 48
25.0
100
AcDbLine
 10
212.5
 20
8.0
 30
0.0
 11
212.5
 21
230.0
 31
0.0
  0
LINE
  5
182
330
2
100
AcDbEntity
  8
GEB-KONTUR-A
 48
25.0
100
AcDbLine
 10
-249.4999999999998
 20
0.0
 30
0.0
 11
-246.9999999999998
 21
0.0
 31
0.0
  0
LINE
  5
183
330
2
100
AcDbEntity
  8
GEB-KONTUR-A
 48
25.0
100
AcDbLine
 10
-249.4999999999999
 20
0.0
 30
0.0
 11
-249.4999999999999
 21
8.0
 31
0.0
  0
LINE
  5
184
330
2
100
AcDbEntity
  8
GEB-KONTUR-A
 48
25.0
100
AcDbLine
 10
-178.9999999999998
 20
0.0
 30
0.0
 11
-246.9999999999999
 21
0.0
 31
0.0
  0
LINE
  5
185
330
2
100
AcDbEntity
  8
GEB-KONTUR-A
 48
25.0
100
AcDbLine
 10
-178.9999999999998
 20
0.0
 30
0.0
 11
-176.4999999999998
 21
0.0
 31
0.0
  0
LINE
  5
186
330
2
100
AcDbEntity
  8
GEB-KONTUR-A
 48
25.0
100
AcDbLine
 10
-176.4999999999997
 20
0.0
 30
0.0
 11
-176.4999999999997
 21
8.0
 31
0.0
  0
LINE
  5
187
330
2
100
AcDbEntity
  8
GEB-KONTUR-A
 48
25.0
100
AcDbLine
 10
-178.9999999999998
 20
8.0
 30
0.0
 11
-176.4999999999998
 21
8.0
 31
0.0
  0
LINE
  5
188
330
2
100
AcDbEntity
  8
GEB-KONTUR-A
 48
25.0
100
AcDbLine
 10
-178.9999999999998
 20
8.0
 30
0.0
 11
-246.9999999999999
 21
8.0
 31
0.0
  0
LINE
  5
189
330
2
100
AcDbEntity
  8
GEB-KONTUR-A
 48
25.0
100
AcDbLine
 10
-249.4999999999998
 20
8.0
 30
0.0
 11
-246.9999999999998
 21
8.0
 31
0.0
  0
LINE
  5
18A
330
2
100
AcDbEntity
  8
GEB-KONTUR-A
 48
25.0
100
AcDbLine
 10
-247.4999999999998
 20
8.0
 30
0.0
 11
-247.4999999999998
 21
230.0
 31
0.0
  0
LINE
  5
18B
330
2
100
AcDbEntity
  8
GEB-KONTUR-A
 48
25.0
100
AcDbLine
 10
-212.4999999999998
 20
8.0
 30
0.0
 11
-212.4999999999998
 21
230.0
 31
0.0
  0
CIRCLE
  5
18C
330
2
100
AcDbEntity
  8
GEB-KONTUR-A
 48
25.0
100
AcDbCircle
 10
229.9999999999998
 20
960.0
 30
0.0
 40
11.99999999999999
  0
CIRCLE
  5
18D
330
2
100
AcDbEntity
  8
GEB-KONTUR-A
 48
25.0
100
AcDbCircle
 10
229.9999999999998
 20
960.0
 30
0.0
 40
6.499999999999999
  0
LINE
  5
18E
330
2
100
AcDbEntity
  8
GEB-KONTUR-A
 48
25.0
100
AcDbLine
 10
213.4999999999998
 20
230.0
 30
0.0
 11
209.9999999999998
 21
230.0
 31
0.0
  0
LINE
  5
18F
330
2
100
AcDbEntity
  8
GEB-KONTUR-A
 48
25.0
100
AcDbLine
 10
213.4999999999998
 20
230.0
 30
0.0
 11
246.4999999999998
 21
230.0
 31
0.0
  0
LINE
  5
190
330
2
100
AcDbEntity
  8
GEB-KONTUR-A
 48
25.0
100
AcDbLine
 10
246.4999999999998
 20
977.9999999999997
 30
0.0
 11
213.4999999999998
 21
977.9999999999997
 31
0.0
  0
LINE
  5
191
330
2
100
AcDbEntity
  8
GEB-KONTUR-A
 48
25.0
100
AcDbLine
 10
249.9999999999997
 20
230.0
 30
0.0
 11
246.4999999999998
 21
230.0
 31
0.0
  0
LINE
  5
192
330
2
100
AcDbEntity
  8
GEB-KONTUR-A
 48
25.0
100
AcDbLine
 10
249.5000000000003
 20
977.9999999999997
 30
0.0
 11
249.9999999999997
 21
977.9999999999997
 31
0.0
  0
LINE
  5
193
330
2
100
AcDbEntity
  8
GEB-KONTUR-A
 48
25.0
100
AcDbLine
 10
249.9999999999997
 20
230.0
 30
0.0
 11
249.9999999999998
 21
978.0
 31
0.0
  0
LINE
  5
194
330
2
100
AcDbEntity
  8
GEB-KONTUR-A
 48
25.0
100
AcDbLine
 10
209.9999999999998
 20
230.0
 30
0.0
 11
209.9999999999999
 21
978.0
 31
0.0
  0
LINE
  5
195
330
2
100
AcDbEntity
  8
GEB-KONTUR-A
 48
25.0
100
AcDbLine
 10
205.9999999999998
 20
230.0
 30
0.0
 11
209.9999999999998
 21
230.0
 31
0.0
  0
LINE
  5
196
330
2
100
AcDbEntity
  8
GEB-KONTUR-A
 48
25.0
100
AcDbLine
 10
205.9999999999998
 20
230.0
 30
0.0
 11
205.9999999999998
 21
252.0
 31
0.0
  0
LINE
  5
197
330
2
100
AcDbEntity
  8
GEB-KONTUR-A
 48
25.0
100
AcDbLine
 10
205.9999999999999
 20
252.0
 30
0.0
 11
209.9999999999999
 21
252.0
 31
0.0
  0
LINE
  5
198
330
2
100
AcDbEntity
  8
GEB-KONTUR-A
 48
25.0
100
AcDbLine
 10
114.0000000000005
 20
952.0
 30
0.0
 11
114.0000000000005
 21
956.0999999999999
 31
0.0
  0
LINE
  5
199
330
2
100
AcDbEntity
  8
GEB-KONTUR-A
 48
25.0
100
AcDbLine
 10
141.0000000000007
 20
956.0999999999999
 30
0.0
 11
141.0000000000007
 21
952.0
 31
0.0
  0
LINE
  5
19A
330
2
100
AcDbEntity
  8
GEB-KONTUR-A
 48
25.0
100
AcDbLine
 10
114.0000000000005
 20
956.0999999999999
 30
0.0
 11
141.0000000000007
 21
956.0999999999999
 31
0.0
  0
LINE
  5
19B
330
2
100
AcDbEntity
  8
GEB-KONTUR-A
 48
25.0
100
AcDbLine
 10
-141.0000000000005
 20
952.0
 30
0.0
 11
-141.0000000000005
 21
956.1000000000001
 31
0.0
  0
LINE
  5
19C
330
2
100
AcDbEntity
  8
GEB-KONTUR-A
 48
25.0
100
AcDbLine
 10
-114.0000000000004
 20
956.1000000000001
 30
0.0
 11
-114.0000000000004
 21
952.0
 31
0.0
  0
LINE
  5
19D
330
2
100
AcDbEntity
  8
GEB-KONTUR-A
 48
25.0
100
AcDbLine
 10
-141.0000000000005
 20
956.1000000000001
 30
0.0
 11
-114.0000000000004
 21
956.1000000000001
 31
0.0
  0
LINE
  5
19E
330
2
100
AcDbEntity
  8
GEB-KONTUR-A
 48
25.0
100
AcDbLine
 10
104.0000000000004
 20
980.0
 30
0.0
 11
249.5000000000011
 21
980.0
 31
0.0
  0
LINE
  5
19F
330
2
100
AcDbEntity
  8
GEB-KONTUR-A
 48
25.0
100
AcDbLine
 10
249.5000000000011
 20
977.9999999999997
 30
0.0
 11
249.5000000000011
 21
980.0
 31
0.0
  0
LINE
  5
1A0
330
2
100
AcDbEntity
  8
GEB-KONTUR-A
 48
25.0
100
AcDbLine
 10
151.0000000000007
 20
952.0
 30
0.0
 11
-151.0000000000006
 21
952.0000000000003
 31
0.0
  0
LINE
  5
1A1
330
2
100
AcDbEntity
  8
GEB-KONTUR-A
 48
25.0
100
AcDbLine
 10
-249.5000000000012
 20
980.0000000000002
 30
0.0
 11
-249.5000000000012
 21
978.0
 31
0.0
  0
LINE
  5
1A2
330
2
100
AcDbEntity
  8
GEB-KONTUR-A
 48
25.0
100
AcDbLine
 10
-249.5000000000012
 20
980.0000000000002
 30
0.0
 11
-104.0000000000005
 21
980.0
 31
0.0
  0
LINE
  5
1A3
330
2
100
AcDbEntity
  8
GEB-KONTUR-A
 48
25.0
100
AcDbLine
 10
210.0000000000004
 20
950.0
 30
0.0
 11
155.0000000000007
 21
950.0
 31
0.0
  0
LINE
  5
1A4
330
2
100
AcDbEntity
  8
GEB-KONTUR-A
 48
25.0
100
AcDbLine
 10
-155.0000000000006
 20
950.0
 30
0.0
 11
-210.000000000001
 21
950.0
 31
0.0
  0
LINE
  5
1A5
330
2
100
AcDbEntity
  8
GEB-KONTUR-A
 48
25.0
100
AcDbLine
 10
151.0000000000007
 20
950.0
 30
0.0
 11
-151.0000000000006
 21
950.0
 31
0.0
  0
LINE
  5
1A6
330
2
100
AcDbEntity
  8
GEB-KONTUR-A
 48
25.0
100
AcDbLine
 10
249.5000000000011
 20
977.9999999999997
 30
0.0
 11
104.0000000000004
 21
978.0
 31
0.0
  0
LINE
  5
1A7
330
2
100
AcDbEntity
  8
GEB-KONTUR-A
 48
25.0
100
AcDbLine
 10
-104.0000000000005
 20
978.0
 30
0.0
 11
-249.5000000000012
 21
978.0
 31
0.0
  0
LINE
  5
1A8
330
2
100
AcDbEntity
  8
GEB-KONTUR-A
 48
25.0
100
AcDbLine
 10
-100.0000000000004
 20
980.0
 30
0.0
 11
100.0000000000004
 21
980.0
 31
0.0
  0
LINE
  5
1A9
330
2
100
AcDbEntity
  8
GEB-KONTUR-A
 48
25.0
100
AcDbLine
 10
100.0000000000004
 20
980.0
 30
0.0
 11
100.0000000000004
 21
978.0
 31
0.0
  0
LINE
  5
1AA
330
2
100
AcDbEntity
  8
GEB-KONTUR-A
 48
25.0
100
AcDbLine
 10
100.0000000000004
 20
978.0
 30
0.0
 11
-100.0000000000004
 21
978.0
 31
0.0
  0
LINE
  5
1AB
330
2
100
AcDbEntity
  8
GEB-KONTUR-A
 48
25.0
100
AcDbLine
 10
-100.0000000000004
 20
978.0
 30
0.0
 11
-100.0000000000004
 21
980.0
 31
0.0
  0
LINE
  5
1AC
330
2
100
AcDbEntity
  8
GEB-KONTUR-A
 48
25.0
100
AcDbLine
 10
-155.0000000000006
 20
952.0000000000003
 30
0.0
 11
-155.0000000000006
 21
950.0
 31
0.0
  0
LINE
  5
1AD
330
2
100
AcDbEntity
  8
GEB-KONTUR-A
 48
25.0
100
AcDbLine
 10
-155.0000000000006
 20
952.0
 30
0.0
 11
-151.0000000000006
 21
952.0
 31
0.0
  0
LINE
  5
1AE
330
2
100
AcDbEntity
  8
GEB-KONTUR-A
 48
25.0
100
AcDbLine
 10
-151.0000000000006
 20
950.0
 30
0.0
 11
-155.0000000000006
 21
950.0
 31
0.0
  0
LINE
  5
1AF
330
2
100
AcDbEntity
  8
GEB-KONTUR-A
 48
25.0
100
AcDbLine
 10
155.0000000000007
 20
950.0
 30
0.0
 11
155.0000000000007
 21
952.0
 31
0.0
  0
LINE
  5
1B0
330
2
100
AcDbEntity
  8
GEB-KONTUR-A
 48
25.0
100
AcDbLine
 10
155.0000000000007
 20
950.0
 30
0.0
 11
151.0000000000007
 21
950.0
 31
0.0
  0
LINE
  5
1B1
330
2
100
AcDbEntity
  8
GEB-KONTUR-A
 48
25.0
100
AcDbLine
 10
151.0000000000007
 20
952.0
 30
0.0
 11
155.0000000000007
 21
952.0
 31
0.0
  0
LINE
  5
1B2
330
2
100
AcDbEntity
  8
GEB-KONTUR-A
 48
25.0
100
AcDbLine
 10
100.0000000000004
 20
980.0
 30
0.0
 11
104.0000000000004
 21
980.0
 31
0.0
  0
LINE
  5
1B3
330
2
100
AcDbEntity
  8
GEB-KONTUR-A
 48
25.0
100
AcDbLine
 10
104.0000000000004
 20
977.9999999999997
 30
0.0
 11
100.0000000000004
 21
977.9999999999997
 31
0.0
  0
LINE
  5
1B4
330
2
100
AcDbEntity
  8
GEB-KONTUR-A
 48
25.0
100
AcDbLine
 10
-100.0000000000004
 20
978.0
 30
0.0
 11
-104.0000000000005
 21
978.0
 31
0.0
  0
LINE
  5
1B5
330
2
100
AcDbEntity
  8
GEB-KONTUR-A
 48
25.0
100
AcDbLine
 10
-104.0000000000005
 20
980.0
 30
0.0
 11
-100.0000000000004
 21
980.0
 31
0.0
  0
LINE
  5
1B6
330
2
100
AcDbEntity
  8
GEB-KONTUR-A
 48
25.0
100
AcDbLine
 10
-205.9999999999998
 20
252.0
 30
0.0
 11
-209.9999999999998
 21
252.0
 31
0.0
  0
LINE
  5
1B7
330
2
100
AcDbEntity
  8
GEB-KONTUR-A
 48
25.0
100
AcDbLine
 10
-205.9999999999998
 20
229.9999999999999
 30
0.0
 11
-205.9999999999998
 21
252.0
 31
0.0
  0
LINE
  5
1B8
330
2
100
AcDbEntity
  8
GEB-KONTUR-A
 48
25.0
100
AcDbLine
 10
-205.9999999999998
 20
229.9999999999999
 30
0.0
 11
-209.9999999999998
 21
229.9999999999999
 31
0.0
  0
LINE
  5
1B9
330
2
100
AcDbEntity
  8
GEB-KONTUR-A
 48
25.0
100
AcDbLine
 10
-213.4999999999998
 20
229.9999999999999
 30
0.0
 11
-209.9999999999998
 21
229.9999999999999
 31
0.0
  0
LINE
  5
1BA
330
2
100
AcDbEntity
  8
GEB-KONTUR-A
 48
25.0
100
AcDbLine
 10
-213.4999999999998
 20
229.9999999999999
 30
0.0
 11
-246.4999999999998
 21
229.9999999999999
 31
0.0
  0
LINE
  5
1BB
330
2
100
AcDbEntity
  8
GEB-KONTUR-A
 48
25.0
100
AcDbLine
 10
-246.4999999999998
 20
978.0
 30
0.0
 11
-213.4999999999998
 21
978.0
 31
0.0
  0
LINE
  5
1BC
330
2
100
AcDbEntity
  8
GEB-KONTUR-A
 48
25.0
100
AcDbLine
 10
-249.9999999999998
 20
229.9999999999999
 30
0.0
 11
-246.4999999999998
 21
229.9999999999999
 31
0.0
  0
LINE
  5
1BD
330
2
100
AcDbEntity
  8
GEB-KONTUR-A
 48
25.0
100
AcDbLine
 10
-249.4999999999996
 20
978.0
 30
0.0
 11
-249.9999999999997
 21
978.0
 31
0.0
  0
LINE
  5
1BE
330
2
100
AcDbEntity
  8
GEB-KONTUR-A
 48
25.0
100
AcDbLine
 10
-249.9999999999998
 20
229.9999999999999
 30
0.0
 11
-249.9999999999998
 21
978.0
 31
0.0
  0
LINE
  5
1BF
330
2
100
AcDbEntity
  8
GEB-KONTUR-A
 48
25.0
100
AcDbLine
 10
-209.9999999999998
 20
229.9999999999999
 30
0.0
 11
-209.9999999999998
 21
978.0
 31
0.0
  0
CIRCLE
  5
1C0
330
2
100
AcDbEntity
  8
GEB-KONTUR-A
 48
25.0
100
AcDbCircle
 10
-229.9999999999998
 20
960.0
 30
0.0
 40
12.00000000000001
  0
CIRCLE
  5
1C1
330
2
100
AcDbEntity
  8
GEB-KONTUR-A
 48
25.0
100
AcDbCircle
 10
-229.9999999999998
 20
960.0
 30
0.0
 40
6.500000000000003
  0
TEXT
  5
1C2
330
2
100
AcDbEntity
  8
GEB-TEXT
100
AcDbText
 10
-32.46691678035471
 20
-13.0
 30
0.0
 40
3.5
  1
DF WT für SA H98/82 WA DE
 72
     1
 11
0.0
 21
-13.0
 31
0.0
100
AcDbText
  0
TEXT
  5
1C4
330
2
100
AcDbEntity
  8
GEB-TEXT
100
AcDbText
 10
-15.62585266030013
 20
-7.5
 30
0.0
 40
3.5
  1
Geberit Duofix
 72
     1
 11
0.0
 21
-7.5
 31
0.0
100
AcDbText
  0
TEXT
  5
1C5
330
2
100
AcDbEntity
  8
GEB-ART-NR
100
AcDbText
 10
-24.1754447996456
 20
-19.34278125428022
 30
0.0
 40
3.5
  1
GEB-ART-NR 111.485
 72
     1
 11
0.5525565646108817
 21
-19.34278125428022
 31
0.0
100
AcDbText
  0
ENDSEC
  0
SECTION
  2
OBJECTS
  0
DICTIONARY
  5
9
330
0
100
AcDbDictionary
281
     1
  3
ACAD_2007HEADERVARS_RT
350
1F2
  3
ACAD_COLOR
350
47
  3
ACAD_GROUP
350
33
  3
ACAD_LAYOUT
350
17
  3
ACAD_MATERIAL
350
B
  3
ACAD_MLEADERSTYLE
350
4A
  3
ACAD_MLINESTYLE
350
34
  3
ACAD_PLOTSETTINGS
350
35
  3
ACAD_PLOTSTYLENAME
350
8
  3
ACAD_SCALELIST
350
48
  3
ACAD_TABLESTYLE
350
49
  3
ACAD_VISUALSTYLE
350
2C
  3
ACDB_RECOMPOSE_DATA
350
1F1
  3
AcDbVariableDictionary
350
1C9
  0
DICTIONARY
  5
2E
330
29
100
AcDbDictionary
280
     1
281
     1
  0
DICTIONARY
  5
1D
330
1C
100
AcDbDictionary
280
     1
281
     1
  3
ACAD_LAYERFILTERS
360
1E
  3
ACLYDICTIONARY
360
1F
  0
DICTIONARY
  5
3
330
2
100
AcDbDictionary
280
     1
281
     1
  3
ACAD_SORTENTS
360
1C7
  0
DICTIONARY
  5
1F2
102
{ACAD_REACTORS
330
9
102
}
330
9
100
AcDbDictionary
281
     1
  3
DIMARCSYM
350
1F3
  3
DIMLTEX1
350
1F5
  3
DIMLTEX2
350
1F6
  3
DIMLTYPE
350
1F4
  0
DICTIONARY
  5
47
102
{ACAD_REACTORS
330
9
102
}
330
9
100
AcDbDictionary
281
     1
  0
DICTIONARY
  5
33
102
{ACAD_REACTORS
330
9
102
}
330
9
100
AcDbDictionary
281
     1
  0
DICTIONARY
  5
17
102
{ACAD_REACTORS
330
9
102
}
330
9
100
AcDbDictionary
281
     1
  3
Layout1
350
1B
  3
Model
350
16
  0
DICTIONARY
  5
B
102
{ACAD_REACTORS
330
9
102
}
330
9
100
AcDbDictionary
281
     1
  3
ByBlock
350
3F
  3
ByLayer
350
36
  3
Global
350
A
  0
DICTIONARY
  5
4A
102
{ACAD_REACTORS
330
9
102
}
330
9
100
AcDbDictionary
281
     1
  3
Standard
350
1E7
  0
DICTIONARY
  5
34
102
{ACAD_REACTORS
330
9
102
}
330
9
100
AcDbDictionary
281
     1
  3
Standard
350
4B
  0
DICTIONARY
  5
35
102
{ACAD_REACTORS
330
9
102
}
330
9
100
AcDbDictionary
281
     1
  0
ACDBDICTIONARYWDFLT
  5
8
102
{ACAD_REACTORS
330
9
102
}
330
9
100
AcDbDictionary
281
     1
  3
Normal
350
7
100
AcDbDictionaryWithDefault
340
7
  0
DICTIONARY
  5
48
102
{ACAD_REACTORS
330
9
102
}
330
9
100
AcDbDictionary
281
     1
  3
A0
350
50
  3
A1
350
51
  3
A2
350
52
  3
A3
350
53
  3
A4
350
54
  3
A5
350
55
  3
A6
350
56
  3
A7
350
57
  3
A8
350
58
  3
A9
350
59
  3
B0
350
5A
  3
B1
350
5B
  3
B2
350
5C
  3
B3
350
5D
  3
B4
350
5E
  3
B5
350
5F
  3
B6
350
60
  3
B7
350
61
  3
B8
350
62
  3
B9
350
63
  3
C0
350
64
  3
C1
350
65
  3
C2
350
66
  3
C3
350
67
  3
C4
350
68
  3
C5
350
69
  3
C6
350
6A
  3
C7
350
6B
  3
C8
350
6C
  3
C9
350
6D
  3
D0
350
6E
  3
D1
350
6F
  3
D2
350
70
  0
DICTIONARY
  5
49
102
{ACAD_REACTORS
330
9
102
}
330
9
100
AcDbDictionary
281
     1
  3
Standard
350
4C
  0
DICTIONARY
  5
2C
102
{ACAD_REACTORS
330
9
102
}
330
9
100
AcDbDictionary
281
     1
  3
2dWireframe
350
2B
  3
Basic
350
1D6
  3
Brighten
350
1DA
  3
ColorChange
350
1DE
  3
Conceptual
350
1D8
  3
Dim
350
1D9
  3
EdgeColorOff
350
1E6
  3
Facepattern
350
1DD
  3
Flat
350
1D2
  3
FlatWithEdges
350
1D3
  3
Gouraud
350
1D4
  3
GouraudWithEdges
350
1D5
  3
Hidden
350
1D7
  3
JitterOff
350
1E4
  3
Linepattern
350
1DC
  3
OverhangOff
350
1E5
  3
Realistic
350
4E
  3
Shaded
350
1E3
  3
Shaded with edges
350
1E2
  3
Shades of Gray
350
1DF
  3
Sketchy
350
1E0
  3
Thicken
350
1DB
  3
Wireframe
350
4F
  3
X-Ray
350
1E1
  0
XRECORD
  5
1F1
102
{ACAD_REACTORS
330
9
102
}
330
9
100
AcDbXrecord
280
     1
 90
        1
330
4C
  0
DICTIONARY
  5
1C9
102
{ACAD_REACTORS
330
9
102
}
330
9
100
AcDbDictionary
281
     1
  3
CANNOSCALE
350
1CD
  3
CMLEADERSTYLE
350
1CB
  3
CTABLESTYLE
350
1CA
  3
DIMASSOC
350
1EE
  3
HIDETEXT
350
1ED
  3
INDEXCTL
350
1EC
  3
LAYEREVAL
350
1CF
  3
LAYERNOTIFY
350
1D0
  3
LIGHTINGUNITS
350
1CE
  3
MSLTSCALE
350
1CC
  3
SORTENTS
350
1EB
  3
XCLIPFRAME
350
1EF
  0
DICTIONARY
  5
1E
102
{ACAD_REACTORS
330
1D
102
}
330
1D
100
AcDbDictionary
281
     1
  0
DICTIONARY
  5
1F
102
{ACAD_REACTORS
330
1D
102
}
330
1D
100
AcDbDictionary
281
     1
1001
ACAD
1000
<All
  0
SORTENTSTABLE
  5
1C7
102
{ACAD_REACTORS
330
3
102
}
330
3
100
AcDbSortentsTable
330
2
331
12E
  5
10C
331
B4
  5
186
331
EF
  5
14B
331
12A
  5
110
331
B0
  5
18A
331
AC
  5
18E
331
165
  5
D5
331
126
  5
114
331
EB
  5
14F
331
A8
  5
192
331
161
  5
D9
331
122
  5
118
331
1A7
  5
93
331
1A3
  5
97
331
19F
  5
9B
331
19B
  5
9F
331
E7
  5
153
331
E3
  5
157
331
15D
  5
DD
331
11E
  5
11C
331
A4
  5
196
331
DF
  5
15B
331
A0
  5
19A
331
11A
  5
120
331
159
  5
E1
331
DB
  5
15F
331
9C
  5
19E
331
155
  5
E5
331
116
  5
124
331
98
  5
1A2
331
151
  5
E9
331
112
  5
128
331
197
  5
A3
331
193
  5
A7
331
18F
  5
AB
331
18B
  5
AF
331
D7
  5
163
331
D3
  5
167
331
14D
  5
ED
331
10E
  5
12C
331
94
  5
1A6
331
CF
  5
16B
331
90
  5
1AA
331
10A
  5
130
331
149
  5
F1
331
CB
  5
16F
331
8C
  5
1AE
331
145
  5
F5
331
106
  5
134
331
88
  5
1B2
331
141
  5
F9
331
102
  5
138
331
187
  5
B3
331
1C2
  5
1C5
331
183
  5
B7
331
1BE
  5
7B
331
17F
  5
BB
331
1BA
  5
80
331
17B
  5
BF
331
C7
  5
173
331
C3
  5
177
331
13D
  5
FD
331
FE
  5
13C
331
84
  5
1B6
331
BF
  5
17B
331
80
  5
1BA
331
FA
  5
140
331
139
  5
101
331
BB
  5
17F
331
7C
  5
1BD
331
F6
  5
144
331
135
  5
105
331
78
  5
1C0
331
131
  5
109
331
F2
  5
148
331
177
  5
C3
331
1B6
  5
84
331
173
  5
C7
331
1B2
  5
88
331
1AE
  5
8C
331
16F
  5
CB
331
1AA
  5
90
331
16B
  5
CF
331
B7
  5
183
331
12D
  5
10D
331
B3
  5
187
331
EE
  5
14C
331
129
  5
111
331
AF
  5
18B
331
AB
  5
18F
331
164
  5
D6
331
125
  5
115
331
EA
  5
150
331
160
  5
DA
331
121
  5
119
331
1A6
  5
94
331
1A2
  5
98
331
19E
  5
9C
331
19A
  5
A0
331
E6
  5
154
331
A7
  5
193
331
E2
  5
158
331
15C
  5
DE
331
A3
  5
197
331
DE
  5
15C
331
9F
  5
19B
331
119
  5
121
331
158
  5
E2
331
9B
  5
19F
331
154
  5
E6
331
115
  5
125
331
DA
  5
160
331
150
  5
EA
331
111
  5
129
331
196
  5
A4
331
192
  5
A8
331
18E
  5
AC
331
18A
  5
B0
331
97
  5
1A3
331
D6
  5
164
331
D2
  5
168
331
14C
  5
EE
331
10D
  5
12D
331
93
  5
1A7
331
CE
  5
16C
331
8F
  5
1AB
331
109
  5
131
331
148
  5
F2
331
CA
  5
170
331
8B
  5
1AF
331
144
  5
F6
331
105
  5
135
331
140
  5
FA
331
101
  5
139
331
186
  5
B4
331
1C5
  5
1C2
331
1C1
  5
71
331
182
  5
B8
331
1BD
  5
7C
331
17E
  5
BC
331
1B9
  5
81
331
17A
  5
C0
331
87
  5
1B3
331
C6
  5
174
331
C2
  5
178
331
13C
  5
FE
331
FD
  5
13D
331
83
  5
1B7
331
BE
  5
17C
331
7F
  5
1BB
331
F9
  5
141
331
138
  5
102
331
BA
  5
180
331
7B
  5
1BE
331
134
  5
106
331
F5
  5
145
331
130
  5
10A
331
F1
  5
149
331
176
  5
C4
331
1B5
  5
85
331
1B1
  5
89
331
172
  5
C8
331
1AD
  5
8D
331
16E
  5
CC
331
1A9
  5
91
331
16A
  5
D0
331
B6
  5
184
331
12C
  5
10E
331
B2
  5
188
331
ED
  5
14D
331
AE
  5
18C
331
167
  5
D3
331
128
  5
112
331
AA
  5
190
331
163
  5
D7
331
124
  5
116
331
E9
  5
151
331
120
  5
11A
331
1A5
  5
95
331
1A1
  5
99
331
19D
  5
9D
331
199
  5
A1
331
E5
  5
155
331
15F
  5
DB
331
A6
  5
194
331
E1
  5
159
331
A2
  5
198
331
11C
  5
11E
331
15B
  5
DF
331
DD
  5
15D
331
9E
  5
19C
331
118
  5
122
331
157
  5
E3
331
9A
  5
1A0
331
153
  5
E7
331
114
  5
126
331
D9
  5
161
331
110
  5
12A
331
195
  5
A5
331
191
  5
A9
331
18D
  5
AD
331
189
  5
B1
331
D5
  5
165
331
14F
  5
EB
331
96
  5
1A4
331
D1
  5
169
331
14B
  5
EF
331
10C
  5
12E
331
92
  5
1A8
331
CD
  5
16D
331
8E
  5
1AC
331
108
  5
132
331
147
  5
F3
331
8A
  5
1B0
331
143
  5
F7
331
104
  5
136
331
C9
  5
171
331
100
  5
13A
331
185
  5
B5
331
1C0
  5
78
331
181
  5
B9
331
1BC
  5
7D
331
17D
  5
BD
331
1B8
  5
82
331
179
  5
C1
331
86
  5
1B4
331
13F
  5
FB
331
C5
  5
175
331
C1
  5
179
331
13B
  5
FF
331
FC
  5
13E
331
82
  5
1B8
331
BD
  5
17D
331
F8
  5
142
331
137
  5
103
331
B9
  5
181
331
7A
  5
1BF
331
133
  5
107
331
F4
  5
146
331
F0
  5
14A
331
175
  5
C5
331
1B4
  5
86
331
1B0
  5
8A
331
171
  5
C9
331
1AC
  5
8E
331
16D
  5
CD
331
1A8
  5
92
331
169
  5
D1
331
12F
  5
10B
331
B5
  5
185
331
12B
  5
10F
331
B1
  5
189
331
EC
  5
14E
331
AD
  5
18D
331
166
  5
D4
331
127
  5
113
331
A9
  5
191
331
162
  5
D8
331
123
  5
117
331
E8
  5
152
331
71
  5
1C1
331
1A4
  5
96
331
1A0
  5
9A
331
19C
  5
9E
331
198
  5
A2
331
E4
  5
156
331
15E
  5
DC
331
11F
  5
11B
331
A5
  5
195
331
E0
  5
15A
331
A1
  5
199
331
11B
  5
11F
331
15A
  5
E0
331
DC
  5
15E
331
9D
  5
19D
331
156
  5
E4
331
117
  5
123
331
99
  5
1A1
331
152
  5
E8
331
113
  5
127
331
D8
  5
162
331
194
  5
A6
331
190
  5
AA
331
18C
  5
AE
331
188
  5
B2
331
D4
  5
166
331
14E
  5
EC
331
10F
  5
12B
331
95
  5
1A5
331
D0
  5
16A
331
91
  5
1A9
331
10B
  5
12F
331
14A
  5
F0
331
CC
  5
16E
331
8D
  5
1AD
331
107
  5
133
331
146
  5
F4
331
89
  5
1B1
331
142
  5
F8
331
103
  5
137
331
C8
  5
172
331
184
  5
B6
331
1BF
  5
7A
331
180
  5
BA
331
1BB
  5
7F
331
17C
  5
BE
331
178
  5
C2
331
C4
  5
176
331
13E
  5
FC
331
FF
  5
13B
331
85
  5
1B5
331
C0
  5
17A
331
13A
  5
100
331
FB
  5
13F
331
81
  5
1B9
331
BC
  5
17E
331
7D
  5
1BC
331
F7
  5
143
331
136
  5
104
331
132
  5
108
331
F3
  5
147
331
B8
  5
182
331
1B7
  5
83
331
174
  5
C6
331
1B3
  5
87
331
1AF
  5
8B
331
170
  5
CA
331
1AB
  5
8F
331
16C
  5
CE
331
168
  5
D2
  0
XRECORD
  5
1F3
102
{ACAD_REACTORS
330
1F2
102
}
330
1F2
100
AcDbXrecord
280
     1
 70
     1
  0
XRECORD
  5
1F5
102
{ACAD_REACTORS
330
1F2
102
}
330
1F2
100
AcDbXrecord
280
     1
340
25
  0
XRECORD
  5
1F6
102
{ACAD_REACTORS
330
1F2
102
}
330
1F2
100
AcDbXrecord
280
     1
340
25
  0
XRECORD
  5
1F4
102
{ACAD_REACTORS
330
1F2
102
}
330
1F2
100
AcDbXrecord
280
     1
340
25
  0
LAYOUT
  5
1B
102
{ACAD_XDICTIONARY
360
1FA
102
}
102
{ACAD_REACTORS
330
17
102
}
330
17
100
AcDbPlotSettings
  1

  2
\\le-server\HP LaserJet 2100
  4

  6

 40
0.0
 41
0.0
 42
0.0
 43
0.0
 44
0.0
 45
0.0
 46
0.0
 47
0.0
 48
0.0
 49
0.0
140
0.0
141
0.0
142
1.0
143
1.0
 70
   688
 72
     0
 73
     0
 74
     5
  7

 75
    16
147
1.0
148
0.0
149
0.0
100
AcDbLayout
  1
Layout1
 70
     1
 71
     1
 10
0.0
 20
0.0
 11
1189.0
 21
840.9999999999998
 12
0.0
 22
0.0
 32
0.0
 14
0.0
 24
0.0
 34
0.0
 15
1189.0
 25
840.9999999999998
 35
0.0
146
0.0
 13
0.0
 23
0.0
 33
0.0
 16
1.0
 26
0.0
 36
0.0
 17
0.0
 27
1.0
 37
0.0
 76
     0
330
18
  0
LAYOUT
  5
16
102
{ACAD_XDICTIONARY
360
1F8
102
}
102
{ACAD_REACTORS
330
17
102
}
330
17
100
AcDbPlotSettings
  1

  2
\\le-server\HP LaserJet 2100
  4

  6

 40
0.0
 41
0.0
 42
0.0
 43
0.0
 44
0.0
 45
0.0
 46
0.0
 47
0.0
 48
0.0
 49
0.0
140
0.0
141
0.0
142
1.0
143
1.0
 70
  1712
 72
     0
 73
     0
 74
     0
  7

 75
     0
147
1.0
148
0.0
149
0.0
100
AcDbLayout
  1
Model
 70
     1
 71
     0
 10
0.0
 20
0.0
 11
12.0
 21
9.0
 12
0.0
 22
0.0
 32
0.0
 14
0.0
 24
0.0
 34
0.0
 15
0.0
 25
0.0
 35
0.0
146
0.0
 13
0.0
 23
0.0
 33
0.0
 16
1.0
 26
0.0
 36
0.0
 17
0.0
 27
1.0
 37
0.0
 76
     0
330
2
331
2A
  0
MATERIAL
  5
3F
102
{ACAD_XDICTIONARY
360
40
102
}
102
{ACAD_REACTORS
330
B
102
}
330
B
100
AcDbMaterial
  1
ByBlock
 72
     0
 43
0.0208333333333333
 43
0.0
 43
0.0
 43
0.0
 43
0.0
 43
0.0208333333333333
 43
0.0
 43
0.0
 43
0.0
 43
0.0
 43
1.0
 43
0.0
 43
0.0
 43
0.0
 43
0.0
 43
1.0
 77
     0
 47
0.0208333333333333
 47
0.0
 47
0.0
 47
0.0
 47
0.0
 47
0.0208333333333333
 47
0.0
 47
0.0
 47
0.0
 47
0.0
 47
1.0
 47
0.0
 47
0.0
 47
0.0
 47
0.0
 47
1.0
171
     0
 49
0.0208333333333333
 49
0.0
 49
0.0
 49
0.0
 49
0.0
 49
0.0208333333333333
 49
0.0
 49
0.0
 49
0.0
 49
0.0
 49
1.0
 49
0.0
 49
0.0
 49
0.0
 49
0.0
 49
1.0
175
     0
142
0.0208333333333333
142
0.0
142
0.0
142
0.0
142
0.0
142
0.0208333333333333
142
0.0
142
0.0
142
0.0
142
0.0
142
1.0
142
0.0
142
0.0
142
0.0
142
0.0
142
1.0
179
     0
144
0.0208333333333333
144
0.0
144
0.0
144
0.0
144
0.0
144
0.0208333333333333
144
0.0
144
0.0
144
0.0
144
0.0
144
1.0
144
0.0
144
0.0
144
0.0
144
0.0
144
1.0
147
0.0208333333333333
147
0.0
147
0.0
147
0.0
147
0.0
147
0.0208333333333333
147
0.0
147
0.0
147
0.0
147
0.0
147
1.0
147
0.0
147
0.0
147
0.0
147
0.0
147
1.0
  0
MATERIAL
  5
36
102
{ACAD_XDICTIONARY
360
37
102
}
102
{ACAD_REACTORS
330
B
102
}
330
B
100
AcDbMaterial
  1
ByLayer
 72
     0
 43
0.0208333333333333
 43
0.0
 43
0.0
 43
0.0
 43
0.0
 43
0.0208333333333333
 43
0.0
 43
0.0
 43
0.0
 43
0.0
 43
1.0
 43
0.0
 43
0.0
 43
0.0
 43
0.0
 43
1.0
 77
     0
 47
0.0208333333333333
 47
0.0
 47
0.0
 47
0.0
 47
0.0
 47
0.0208333333333333
 47
0.0
 47
0.0
 47
0.0
 47
0.0
 47
1.0
 47
0.0
 47
0.0
 47
0.0
 47
0.0
 47
1.0
171
     0
 49
0.0208333333333333
 49
0.0
 49
0.0
 49
0.0
 49
0.0
 49
0.0208333333333333
 49
0.0
 49
0.0
 49
0.0
 49
0.0
 49
1.0
 49
0.0
 49
0.0
 49
0.0
 49
0.0
 49
1.0
175
     0
142
0.0208333333333333
142
0.0
142
0.0
142
0.0
142
0.0
142
0.0208333333333333
142
0.0
142
0.0
142
0.0
142
0.0
142
1.0
142
0.0
142
0.0
142
0.0
142
0.0
142
1.0
179
     0
144
0.0208333333333333
144
0.0
144
0.0
144
0.0
144
0.0
144
0.0208333333333333
144
0.0
144
0.0
144
0.0
144
0.0
144
1.0
144
0.0
144
0.0
144
0.0
144
0.0
144
1.0
147
0.0208333333333333
147
0.0
147
0.0
147
0.0
147
0.0
147
0.0208333333333333
147
0.0
147
0.0
147
0.0
147
0.0
147
1.0
147
0.0
147
0.0
147
0.0
147
0.0
147
1.0
  0
MATERIAL
  5
A
102
{ACAD_XDICTIONARY
360
C
102
}
102
{ACAD_REACTORS
330
B
102
}
330
B
100
AcDbMaterial
  1
Global
 72
     0
 43
0.0208333333333333
 43
0.0
 43
0.0
 43
0.0
 43
0.0
 43
0.0208333333333333
 43
0.0
 43
0.0
 43
0.0
 43
0.0
 43
1.0
 43
0.0
 43
0.0
 43
0.0
 43
0.0
 43
1.0
 77
     0
 47
0.0208333333333333
 47
0.0
 47
0.0
 47
0.0
 47
0.0
 47
0.0208333333333333
 47
0.0
 47
0.0
 47
0.0
 47
0.0
 47
1.0
 47
0.0
 47
0.0
 47
0.0
 47
0.0
 47
1.0
171
     0
 49
0.0208333333333333
 49
0.0
 49
0.0
 49
0.0
 49
0.0
 49
0.0208333333333333
 49
0.0
 49
0.0
 49
0.0
 49
0.0
 49
1.0
 49
0.0
 49
0.0
 49
0.0
 49
0.0
 49
1.0
175
     0
142
0.0208333333333333
142
0.0
142
0.0
142
0.0
142
0.0
142
0.0208333333333333
142
0.0
142
0.0
142
0.0
142
0.0
142
1.0
142
0.0
142
0.0
142
0.0
142
0.0
142
1.0
179
     0
144
0.0208333333333333
144
0.0
144
0.0
144
0.0
144
0.0
144
0.0208333333333333
144
0.0
144
0.0
144
0.0
144
0.0
144
1.0
144
0.0
144
0.0
144
0.0
144
0.0
144
1.0
147
0.0208333333333333
147
0.0
147
0.0
147
0.0
147
0.0
147
0.0208333333333333
147
0.0
147
0.0
147
0.0
147
0.0
147
1.0
147
0.0
147
0.0
147
0.0
147
0.0
147
1.0
  0
MLEADERSTYLE
  5
1E7
102
{ACAD_REACTORS
330
4A
102
}
330
4A
100
AcDbMLeaderStyle
170
     2
171
     1
172
     0
 90
        2
 40
0.0
 41
0.0
173
     1
 91
-1056964608
340
25
 92
       -2
290
     1
 42
2.0
291
     1
 43
0.36
  3
Standard
 44
4.0
300

342
22
174
     1
178
     6
175
     1
176
     0
 93
-1056964608
 45
4.0
292
     0
297
     0
 46
4.0
 94
-1056964608
 47
1.0
 49
1.0
140
1.0
293
     1
141
0.0
294
     1
177
     0
142
1.0
295
     0
296
     0
143
0.125
1001
ACAD_MLEADERVER
1070
     2
  0
MLINESTYLE
  5
4B
102
{ACAD_REACTORS
330
34
102
}
330
34
100
AcDbMlineStyle
  2
STANDARD
 70
     0
  3

 62
   256
 51
90.0
 52
90.0
 71
     2
 49
0.5
 62
   256
  6
BYLAYER
 49
-0.5
 62
   256
  6
BYLAYER
  0
ACDBPLACEHOLDER
  5
7
102
{ACAD_REACTORS
330
8
102
}
330
8
  0
SCALE
  5
50
102
{ACAD_REACTORS
330
48
102
}
330
48
100
AcDbScale
 70
     0
300
1:1
140
1.0
141
1.0
290
     1
  0
SCALE
  5
51
102
{ACAD_REACTORS
330
48
102
}
330
48
100
AcDbScale
 70
     0
300
1:2
140
1.0
141
2.0
290
     0
  0
SCALE
  5
52
102
{ACAD_REACTORS
330
48
102
}
330
48
100
AcDbScale
 70
     0
300
1:4
140
1.0
141
4.0
290
     0
  0
SCALE
  5
53
102
{ACAD_REACTORS
330
48
102
}
330
48
100
AcDbScale
 70
     0
300
1:5
140
1.0
141
5.0
290
     0
  0
SCALE
  5
54
102
{ACAD_REACTORS
330
48
102
}
330
48
100
AcDbScale
 70
     0
300
1:8
140
1.0
141
8.0
290
     0
  0
SCALE
  5
55
102
{ACAD_REACTORS
330
48
102
}
330
48
100
AcDbScale
 70
     0
300
1:10
140
1.0
141
10.0
290
     0
  0
SCALE
  5
56
102
{ACAD_REACTORS
330
48
102
}
330
48
100
AcDbScale
 70
     0
300
1:16
140
1.0
141
16.0
290
     0
  0
SCALE
  5
57
102
{ACAD_REACTORS
330
48
102
}
330
48
100
AcDbScale
 70
     0
300
1:20
140
1.0
141
20.0
290
     0
  0
SCALE
  5
58
102
{ACAD_REACTORS
330
48
102
}
330
48
100
AcDbScale
 70
     0
300
1:30
140
1.0
141
30.0
290
     0
  0
SCALE
  5
59
102
{ACAD_REACTORS
330
48
102
}
330
48
100
AcDbScale
 70
     0
300
1:40
140
1.0
141
40.0
290
     0
  0
SCALE
  5
5A
102
{ACAD_REACTORS
330
48
102
}
330
48
100
AcDbScale
 70
     0
300
1:50
140
1.0
141
50.0
290
     0
  0
SCALE
  5
5B
102
{ACAD_REACTORS
330
48
102
}
330
48
100
AcDbScale
 70
     0
300
1:100
140
1.0
141
100.0
290
     0
  0
SCALE
  5
5C
102
{ACAD_REACTORS
330
48
102
}
330
48
100
AcDbScale
 70
     0
300
2:1
140
2.0
141
1.0
290
     0
  0
SCALE
  5
5D
102
{ACAD_REACTORS
330
48
102
}
330
48
100
AcDbScale
 70
     0
300
4:1
140
4.0
141
1.0
290
     0
  0
SCALE
  5
5E
102
{ACAD_REACTORS
330
48
102
}
330
48
100
AcDbScale
 70
     0
300
8:1
140
8.0
141
1.0
290
     0
  0
SCALE
  5
5F
102
{ACAD_REACTORS
330
48
102
}
330
48
100
AcDbScale
 70
     0
300
10:1
140
10.0
141
1.0
290
     0
  0
SCALE
  5
60
102
{ACAD_REACTORS
330
48
102
}
330
48
100
AcDbScale
 70
     0
300
100:1
140
100.0
141
1.0
290
     0
  0
SCALE
  5
61
102
{ACAD_REACTORS
330
48
102
}
330
48
100
AcDbScale
 70
     0
300
1/128" = 1'-0"
140
0.0078125
141
12.0
290
     0
  0
SCALE
  5
62
102
{ACAD_REACTORS
330
48
102
}
330
48
100
AcDbScale
 70
     0
300
1/64" = 1'-0"
140
0.015625
141
12.0
290
     0
  0
SCALE
  5
63
102
{ACAD_REACTORS
330
48
102
}
330
48
100
AcDbScale
 70
     0
300
1/32" = 1'-0"
140
0.03125
141
12.0
290
     0
  0
SCALE
  5
64
102
{ACAD_REACTORS
330
48
102
}
330
48
100
AcDbScale
 70
     0
300
1/16" = 1'-0"
140
0.0625
141
12.0
290
     0
  0
SCALE
  5
65
102
{ACAD_REACTORS
330
48
102
}
330
48
100
AcDbScale
 70
     0
300
3/32" = 1'-0"
140
0.09375
141
12.0
290
     0
  0
SCALE
  5
66
102
{ACAD_REACTORS
330
48
102
}
330
48
100
AcDbScale
 70
     0
300
1/8" = 1'-0"
140
0.125
141
12.0
290
     0
  0
SCALE
  5
67
102
{ACAD_REACTORS
330
48
102
}
330
48
100
AcDbScale
 70
     0
300
3/16" = 1'-0"
140
0.1875
141
12.0
290
     0
  0
SCALE
  5
68
102
{ACAD_REACTORS
330
48
102
}
330
48
100
AcDbScale
 70
     0
300
1/4" = 1'-0"
140
0.25
141
12.0
290
     0
  0
SCALE
  5
69
102
{ACAD_REACTORS
330
48
102
}
330
48
100
AcDbScale
 70
     0
300
3/8" = 1'-0"
140
0.375
141
12.0
290
     0
  0
SCALE
  5
6A
102
{ACAD_REACTORS
330
48
102
}
330
48
100
AcDbScale
 70
     0
300
1/2" = 1'-0"
140
0.5
141
12.0
290
     0
  0
SCALE
  5
6B
102
{ACAD_REACTORS
330
48
102
}
330
48
100
AcDbScale
 70
     0
300
3/4" = 1'-0"
140
0.75
141
12.0
290
     0
  0
SCALE
  5
6C
102
{ACAD_REACTORS
330
48
102
}
330
48
100
AcDbScale
 70
     0
300
1" = 1'-0"
140
1.0
141
12.0
290
     0
  0
SCALE
  5
6D
102
{ACAD_REACTORS
330
48
102
}
330
48
100
AcDbScale
 70
     0
300
1-1/2" = 1'-0"
140
1.5
141
12.0
290
     0
  0
SCALE
  5
6E
102
{ACAD_REACTORS
330
48
102
}
330
48
100
AcDbScale
 70
     0
300
3" = 1'-0"
140
3.0
141
12.0
290
     0
  0
SCALE
  5
6F
102
{ACAD_REACTORS
330
48
102
}
330
48
100
AcDbScale
 70
     0
300
6" = 1'-0"
140
6.0
141
12.0
290
     0
  0
SCALE
  5
70
102
{ACAD_REACTORS
330
48
102
}
330
48
100
AcDbScale
 70
     0
300
1'-0" = 1'-0"
140
12.0
141
12.0
290
     0
  0
TABLESTYLE
  5
4C
102
{ACAD_XDICTIONARY
360
4D
102
}
102
{ACAD_REACTORS
330
49
102
}
330
49
100
AcDbTableStyle
  3
Standard
 70
     0
 71
     0
 40
0.06
 41
0.06
280
     0
281
     0
  7
STANDARD
140
0.18
170
     2
 62
     0
 63
     7
283
     0
274
    -2
284
     1
 64
     0
275
    -2
285
     1
 65
     0
276
    -2
286
     1
 66
     0
277
    -2
287
     1
 67
     0
278
    -2
288
     1
 68
     0
279
    -2
289
     1
 69
     0
  7
STANDARD
140
0.25
170
     5
 62
     0
 63
     7
283
     0
274
    -2
284
     1
 64
     0
275
    -2
285
     1
 65
     0
276
    -2
286
     1
 66
     0
277
    -2
287
     1
 67
     0
278
    -2
288
     1
 68
     0
279
    -2
289
     1
 69
     0
  7
STANDARD
140
0.18
170
     5
 62
     0
 63
     7
283
     0
274
    -2
284
     1
 64
     0
275
    -2
285
     1
 65
     0
276
    -2
286
     1
 66
     0
277
    -2
287
     1
 67
     0
278
    -2
288
     1
 68
     0
279
    -2
289
     1
 69
     0
  0
VISUALSTYLE
  5
2B
102
{ACAD_XDICTIONARY
360
1FC
102
}
102
{ACAD_REACTORS
330
2C
102
}
330
2C
100
AcDbVisualStyle
  2
2dWireframe
 70
     4
 71
     0
 72
     2
 73
     0
 90
        0
 40
-0.6
 41
-30.0
 62
     5
 63
     7
 74
     1
 91
        4
 64
     7
 65
   257
 75
     1
175
     1
 42
1.0
 92
        0
 66
   257
 43
1.0
 76
     1
 77
     6
 78
     2
 67
     7
 79
     5
170
     0
171
     0
290
     0
174
     0
 93
        1
 44
0.0
173
     0
291
     0
 45
0.0
1001
ACAD
1000
AcDbSavedByObjectVersion
1070
     0
  0
VISUALSTYLE
  5
1D6
102
{ACAD_XDICTIONARY
360
20D
102
}
102
{ACAD_REACTORS
330
2C
102
}
330
2C
100
AcDbVisualStyle
  2
Basic
 70
     7
 71
     1
 72
     0
 73
     1
 90
        0
 40
-0.6
 41
-30.0
 62
     5
 63
     7
 74
     0
 91
        4
 64
     7
 65
   257
 75
     1
175
     1
 42
1.0
 92
        8
 66
     7
 43
1.0
 76
     1
 77
     6
 78
     2
 67
     7
 79
     5
170
     0
171
     0
290
     0
174
     0
 93
        1
 44
0.0
173
     0
291
     1
 45
0.0
1001
ACAD
1000
AcDbSavedByObjectVersion
1070
     0
  0
VISUALSTYLE
  5
1DA
102
{ACAD_XDICTIONARY
360
215
102
}
102
{ACAD_REACTORS
330
2C
102
}
330
2C
100
AcDbVisualStyle
  2
Brighten
 70
    12
 71
     2
 72
     2
 73
     0
 90
        0
 40
-0.6
 41
-30.0
 62
     5
 63
     7
 74
     1
 91
        4
 64
     7
 65
   257
 75
     1
175
     1
 42
1.0
 92
        8
 66
     7
 43
1.0
 76
     1
 77
     6
 78
     2
 67
     7
 79
     5
170
     0
171
     0
290
     0
174
     0
 93
        1
 44
50.0
173
     0
291
     1
 45
0.0
1001
ACAD
1000
AcDbSavedByObjectVersion
1070
     0
  0
VISUALSTYLE
  5
1DE
102
{ACAD_XDICTIONARY
360
21D
102
}
102
{ACAD_REACTORS
330
2C
102
}
330
2C
100
AcDbVisualStyle
  2
ColorChange
 70
    16
 71
     2
 72
     2
 73
     3
 90
        0
 40
-0.6
 41
-30.0
 62
     5
 63
     8
 74
     1
 91
        4
 64
     7
 65
   257
 75
     1
175
     1
 42
1.0
 92
        8
 66
     8
 43
1.0
 76
     1
 77
     6
 78
     2
 67
     7
 79
     5
170
     0
171
     0
290
     0
174
     0
 93
        1
 44
0.0
173
     0
291
     1
 45
0.0
1001
ACAD
1000
AcDbSavedByObjectVersion
1070
     0
  0
VISUALSTYLE
  5
1D8
102
{ACAD_XDICTIONARY
360
211
102
}
102
{ACAD_REACTORS
330
2C
102
}
330
2C
100
AcDbVisualStyle
  2
Conceptual
 70
     9
 71
     3
 72
     2
 73
     0
 90
        0
 40
-0.6
 41
-30.0
 62
     5
 63
     7
 74
     2
 91
        2
 64
     7
 65
   257
 75
     1
175
     1
 42
179.0
 92
        8
 66
     7
 43
1.0
 76
     1
 77
     6
 78
     2
 67
     7
 79
     3
170
     0
171
     0
290
     0
174
     0
 93
        1
 44
0.0
173
     0
291
     0
 45
0.0
1001
ACAD
1000
AcDbSavedByObjectVersion
1070
     0
  0
VISUALSTYLE
  5
1D9
102
{ACAD_XDICTIONARY
360
213
102
}
102
{ACAD_REACTORS
330
2C
102
}
330
2C
100
AcDbVisualStyle
  2
Dim
 70
    11
 71
     2
 72
     2
 73
     0
 90
        0
 40
-0.6
 41
-30.0
 62
     5
 63
     7
 74
     1
 91
        4
 64
     7
 65
   257
 75
     1
175
     1
 42
1.0
 92
        8
 66
     7
 43
1.0
 76
     1
 77
     6
 78
     2
 67
     7
 79
     5
170
     0
171
     0
290
     0
174
     0
 93
        1
 44
-50.0
173
     0
291
     1
 45
0.0
1001
ACAD
1000
AcDbSavedByObjectVersion
1070
     0
  0
VISUALSTYLE
  5
1E6
102
{ACAD_XDICTIONARY
360
22D
102
}
102
{ACAD_REACTORS
330
2C
102
}
330
2C
100
AcDbVisualStyle
  2
EdgeColorOff
 70
    22
 71
     2
 72
     2
 73
     0
 90
        0
 40
-0.6
 41
-30.0
 62
     5
 63
     7
 74
     1
 91
        4
 64
     7
 65
   257
 75
     1
175
     1
 42
1.0
 92
        8
 66
     7
 43
1.0
 76
     1
 77
     6
 78
     2
 67
     7
 79
     5
170
     0
171
     0
290
     0
174
     0
 93
        1
 44
0.0
173
     0
291
     1
 45
0.0
1001
ACAD
1000
AcDbSavedByObjectVersion
1070
     0
  0
VISUALSTYLE
  5
1DD
102
{ACAD_XDICTIONARY
360
21B
102
}
102
{ACAD_REACTORS
330
2C
102
}
330
2C
100
AcDbVisualStyle
  2
Facepattern
 70
    15
 71
     2
 72
     2
 73
     0
 90
        0
 40
-0.6
 41
-30.0
 62
     5
 63
     7
 74
     1
 91
        4
 64
     7
 65
   257
 75
     1
175
     1
 42
1.0
 92
        8
 66
     7
 43
1.0
 76
     1
 77
     6
 78
     2
 67
     7
 79
     5
170
     0
171
     0
290
     0
174
     0
 93
        1
 44
0.0
173
     0
291
     1
 45
0.0
1001
ACAD
1000
AcDbSavedByObjectVersion
1070
     0
  0
VISUALSTYLE
  5
1D2
102
{ACAD_XDICTIONARY
360
205
102
}
102
{ACAD_REACTORS
330
2C
102
}
330
2C
100
AcDbVisualStyle
  2
Flat
 70
     0
 71
     2
 72
     1
 73
     1
 90
        2
 40
-0.6
 41
30.0
 62
     5
 63
     7
 74
     0
 91
        0
 64
     7
 65
   257
 75
     1
175
     1
 42
1.0
 92
        8
 66
     7
 43
1.0
 76
     1
 77
     6
 78
     2
 67
     7
 79
     5
170
     0
171
     0
290
     0
174
     0
 93
       13
 44
0.0
173
     0
291
     1
 45
0.0
1001
ACAD
1000
AcDbSavedByObjectVersion
1070
     0
  0
VISUALSTYLE
  5
1D3
102
{ACAD_XDICTIONARY
360
207
102
}
102
{ACAD_REACTORS
330
2C
102
}
330
2C
100
AcDbVisualStyle
  2
FlatWithEdges
 70
     1
 71
     2
 72
     1
 73
     1
 90
        2
 40
-0.6
 41
30.0
 62
     5
 63
     7
 74
     1
 91
        0
 64
     7
 65
   257
 75
     1
175
     1
 42
1.0
 92
        0
 66
   257
 43
1.0
 76
     1
 77
     6
 78
     2
 67
     7
 79
     5
170
     0
171
     0
290
     0
174
     0
 93
       13
 44
0.0
173
     0
291
     1
 45
0.0
1001
ACAD
1000
AcDbSavedByObjectVersion
1070
     0
  0
VISUALSTYLE
  5
1D4
102
{ACAD_XDICTIONARY
360
209
102
}
102
{ACAD_REACTORS
330
2C
102
}
330
2C
100
AcDbVisualStyle
  2
Gouraud
 70
     2
 71
     2
 72
     2
 73
     1
 90
        2
 40
-0.6
 41
30.0
 62
     5
 63
     7
 74
     0
 91
        0
 64
     7
 65
   257
 75
     1
175
     1
 42
1.0
 92
        0
 66
     7
 43
1.0
 76
     1
 77
     6
 78
     2
 67
     7
 79
     5
170
     0
171
     0
290
     0
174
     0
 93
       13
 44
0.0
173
     0
291
     1
 45
0.0
1001
ACAD
1000
AcDbSavedByObjectVersion
1070
     0
  0
VISUALSTYLE
  5
1D5
102
{ACAD_XDICTIONARY
360
20B
102
}
102
{ACAD_REACTORS
330
2C
102
}
330
2C
100
AcDbVisualStyle
  2
GouraudWithEdges
 70
     3
 71
     2
 72
     2
 73
     1
 90
        2
 40
-0.6
 41
30.0
 62
     5
 63
     7
 74
     1
 91
        0
 64
     7
 65
   257
 75
     1
175
     1
 42
1.0
 92
        0
 66
   257
 43
1.0
 76
     1
 77
     6
 78
     2
 67
     7
 79
     5
170
     0
171
     0
290
     0
174
     0
 93
       13
 44
0.0
173
     0
291
     1
 45
0.0
1001
ACAD
1000
AcDbSavedByObjectVersion
1070
     0
  0
VISUALSTYLE
  5
1D7
102
{ACAD_XDICTIONARY
360
20F
102
}
102
{ACAD_REACTORS
330
2C
102
}
330
2C
100
AcDbVisualStyle
  2
Hidden
 70
     6
 71
     1
 72
     2
 73
     2
 90
        0
 40
-0.6
 41
-30.0
 62
     5
 63
     7
 74
     2
 91
        2
 64
     7
 65
   257
 75
     2
175
     1
 42
40.0
 92
        0
 66
   257
 43
1.0
 76
     1
 77
     6
 78
     2
 67
     7
 79
     3
170
     0
171
     0
290
     0
174
     0
 93
        1
 44
0.0
173
     0
291
     0
 45
0.0
1001
ACAD
1000
AcDbSavedByObjectVersion
1070
     0
  0
VISUALSTYLE
  5
1E4
102
{ACAD_XDICTIONARY
360
229
102
}
102
{ACAD_REACTORS
330
2C
102
}
330
2C
100
AcDbVisualStyle
  2
JitterOff
 70
    20
 71
     2
 72
     2
 73
     0
 90
        0
 40
-0.6
 41
-30.0
 62
     5
 63
     7
 74
     1
 91
        4
 64
     7
 65
   257
 75
     1
175
     1
 42
1.0
 92
       10
 66
     7
 43
1.0
 76
     1
 77
     6
 78
     2
 67
     7
 79
     5
170
     0
171
     0
290
     0
174
     0
 93
        1
 44
0.0
173
     0
291
     1
 45
0.0
1001
ACAD
1000
AcDbSavedByObjectVersion
1070
     0
  0
VISUALSTYLE
  5
1DC
102
{ACAD_XDICTIONARY
360
219
102
}
102
{ACAD_REACTORS
330
2C
102
}
330
2C
100
AcDbVisualStyle
  2
Linepattern
 70
    14
 71
     2
 72
     2
 73
     0
 90
        0
 40
-0.6
 41
-30.0
 62
     5
 63
     7
 74
     1
 91
        4
 64
     7
 65
   257
 75
     7
175
     7
 42
1.0
 92
        8
 66
     7
 43
1.0
 76
     1
 77
     6
 78
     2
 67
     7
 79
     5
170
     0
171
     0
290
     0
174
     0
 93
        1
 44
0.0
173
     0
291
     1
 45
0.0
1001
ACAD
1000
AcDbSavedByObjectVersion
1070
     0
  0
VISUALSTYLE
  5
1E5
102
{ACAD_XDICTIONARY
360
22B
102
}
102
{ACAD_REACTORS
330
2C
102
}
330
2C
100
AcDbVisualStyle
  2
OverhangOff
 70
    21
 71
     2
 72
     2
 73
     0
 90
        0
 40
-0.6
 41
-30.0
 62
     5
 63
     7
 74
     1
 91
        4
 64
     7
 65
   257
 75
     1
175
     1
 42
1.0
 92
        9
 66
     7
 43
1.0
 76
     1
 77
     6
 78
     2
 67
     7
 79
     5
170
     0
171
     0
290
     0
174
     0
 93
        1
 44
0.0
173
     0
291
     1
 45
0.0
1001
ACAD
1000
AcDbSavedByObjectVersion
1070
     0
  0
VISUALSTYLE
  5
4E
102
{ACAD_XDICTIONARY
360
201
102
}
102
{ACAD_REACTORS
330
2C
102
}
330
2C
100
AcDbVisualStyle
  2
Realistic
 70
     8
 71
     2
 72
     2
 73
     0
 90
        0
 40
-0.6
 41
-30.0
 62
     5
 63
     7
 74
     1
 91
        0
 64
     7
 65
   257
 75
     1
175
     1
 42
1.0
 92
        8
 66
     8
 43
1.0
 76
     1
 77
     6
 78
     2
 67
     7
 79
     5
170
     0
171
     0
290
     0
174
     0
 93
       13
 44
0.0
173
     0
291
     0
 45
0.0
1001
ACAD
1000
AcDbSavedByObjectVersion
1070
     0
  0
VISUALSTYLE
  5
1E3
102
{ACAD_XDICTIONARY
360
227
102
}
102
{ACAD_REACTORS
330
2C
102
}
330
2C
100
AcDbVisualStyle
  2
Shaded
 70
    27
 71
     2
 72
     2
 73
     1
 90
        2
 40
-0.6
 41
30.0
 62
     5
 63
     7
 74
     0
 91
        4
 64
     7
 65
   257
 75
     1
175
     1
 42
1.0
 92
        8
 66
   257
 43
1.0
 76
     1
 77
     6
 78
     2
 67
     8
 79
     3
170
     0
171
     0
290
     0
174
     0
 93
        5
 44
0.0
173
     0
291
     0
 45
0.0
1001
ACAD
1000
AcDbSavedByObjectVersion
1070
     0
  0
VISUALSTYLE
  5
1E2
102
{ACAD_XDICTIONARY
360
225
102
}
102
{ACAD_REACTORS
330
2C
102
}
330
2C
100
AcDbVisualStyle
  2
Shaded with edges
 70
    26
 71
     2
 72
     2
 73
     1
 90
        2
 40
-0.6
 41
30.0
 62
     5
 63
     7
 74
     1
 91
       10
 64
     7
 65
   257
 75
     2
175
     1
 42
1.0
 92
        8
 66
   257
 43
1.0
 76
     1
 77
     6
 78
     2
 67
     7
 79
     3
170
     0
171
     0
290
     0
174
     0
 93
        5
 44
0.0
173
     0
291
     0
 45
0.0
1001
ACAD
1000
AcDbSavedByObjectVersion
1070
     0
  0
VISUALSTYLE
  5
1DF
102
{ACAD_XDICTIONARY
360
21F
102
}
102
{ACAD_REACTORS
330
2C
102
}
330
2C
100
AcDbVisualStyle
  2
Shades of Gray
 70
    23
 71
     2
 72
     2
 73
     3
 90
        0
 40
-0.6
 41
-30.0
 62
     5
 63
     7
 74
     2
 91
        2
 64
     7
 65
     7
 75
     1
175
     1
 42
40.0
 92
        8
 66
     7
 43
1.0
 76
     1
 77
     6
 78
     2
 67
     7
 79
     3
170
     0
171
     0
290
     0
174
     0
 93
        1
 44
0.0
173
     0
291
     0
 45
0.0
1001
ACAD
1000
AcDbSavedByObjectVersion
1070
     0
  0
VISUALSTYLE
  5
1E0
102
{ACAD_XDICTIONARY
360
221
102
}
102
{ACAD_REACTORS
330
2C
102
}
330
2C
100
AcDbVisualStyle
  2
Sketchy
 70
    24
 71
     1
 72
     2
 73
     2
 90
        0
 40
-0.6
 41
-30.0
 62
     5
 63
     7
 74
     2
 91
        2
 64
     7
 65
     7
 75
     1
175
     1
 42
40.0
 92
       11
 66
     7
 43
1.0
 76
     1
 77
     6
 78
     2
 67
     7
 79
     6
170
     0
171
     0
290
     0
174
     0
 93
        1
 44
0.0
173
     0
291
     0
 45
0.0
1001
ACAD
1000
AcDbSavedByObjectVersion
1070
     0
  0
VISUALSTYLE
  5
1DB
102
{ACAD_XDICTIONARY
360
217
102
}
102
{ACAD_REACTORS
330
2C
102
}
330
2C
100
AcDbVisualStyle
  2
Thicken
 70
    13
 71
     2
 72
     2
 73
     0
 90
        0
 40
-0.6
 41
-30.0
 62
     5
 63
     7
 74
     1
 91
        4
 64
     7
 65
   257
 75
     1
175
     1
 42
1.0
 92
       12
 66
     7
 43
1.0
 76
     1
 77
     6
 78
     2
 67
     7
 79
     5
170
     0
171
     0
290
     0
174
     0
 93
        1
 44
0.0
173
     0
291
     1
 45
0.0
1001
ACAD
1000
AcDbSavedByObjectVersion
1070
     0
  0
VISUALSTYLE
  5
4F
102
{ACAD_XDICTIONARY
360
203
102
}
102
{ACAD_REACTORS
330
2C
102
}
330
2C
100
AcDbVisualStyle
  2
Wireframe
 70
     5
 71
     0
 72
     2
 73
     0
 90
        0
 40
-0.6
 41
-30.0
 62
     5
 63
     7
 74
     1
 91
        4
 64
     7
 65
   257
 75
     1
175
     1
 42
1.0
 92
        0
 66
   257
 43
1.0
 76
     1
 77
     6
 78
     2
 67
     7
 79
     3
170
     0
171
     0
290
     0
174
     0
 93
        1
 44
0.0
173
     0
291
     0
 45
0.0
1001
ACAD
1000
AcDbSavedByObjectVersion
1070
     0
  0
VISUALSTYLE
  5
1E1
102
{ACAD_XDICTIONARY
360
223
102
}
102
{ACAD_REACTORS
330
2C
102
}
330
2C
100
AcDbVisualStyle
  2
X-Ray
 70
    25
 71
     2
 72
     2
 73
     1
 90
        1
 40
0.5
 41
-30.0
 62
     5
 63
     7
 74
     1
 91
        0
 64
     7
 65
   257
 75
     1
175
     1
 42
1.0
 92
        8
 66
     7
 43
1.0
 76
     1
 77
     6
 78
     2
 67
     7
 79
     3
170
     0
171
     0
290
     0
174
     0
 93
       13
 44
0.0
173
     0
291
     0
 45
0.0
1001
ACAD
1000
AcDbSavedByObjectVersion
1070
     0
  0
DICTIONARYVAR
  5
1CD
102
{ACAD_REACTORS
330
1C9
102
}
330
1C9
100
DictionaryVariables
280
     0
  1
1:1
  0
DICTIONARYVAR
  5
1CB
102
{ACAD_REACTORS
330
1C9
102
}
330
1C9
100
DictionaryVariables
280
     0
  1
STANDARD
  0
DICTIONARYVAR
  5
1CA
102
{ACAD_REACTORS
330
1C9
102
}
330
1C9
100
DictionaryVariables
280
     0
  1
STANDARD
  0
DICTIONARYVAR
  5
1EE
102
{ACAD_REACTORS
330
1C9
102
}
330
1C9
100
DictionaryVariables
280
     0
  1
1
  0
DICTIONARYVAR
  5
1ED
102
{ACAD_REACTORS
330
1C9
102
}
330
1C9
100
DictionaryVariables
280
     0
  1
1
  0
DICTIONARYVAR
  5
1EC
102
{ACAD_REACTORS
330
1C9
102
}
330
1C9
100
DictionaryVariables
280
     0
  1
0
  0
DICTIONARYVAR
  5
1CF
102
{ACAD_REACTORS
330
1C9
102
}
330
1C9
100
DictionaryVariables
280
     0
  1
1
  0
DICTIONARYVAR
  5
1D0
102
{ACAD_REACTORS
330
1C9
102
}
330
1C9
100
DictionaryVariables
280
     0
  1
15
  0
DICTIONARYVAR
  5
1CE
102
{ACAD_REACTORS
330
1C9
102
}
330
1C9
100
DictionaryVariables
280
     0
  1
0
  0
DICTIONARYVAR
  5
1CC
102
{ACAD_REACTORS
330
1C9
102
}
330
1C9
100
DictionaryVariables
280
     0
  1
0
  0
DICTIONARYVAR
  5
1EB
102
{ACAD_REACTORS
330
1C9
102
}
330
1C9
100
DictionaryVariables
280
     0
  1
127
  0
DICTIONARYVAR
  5
1EF
102
{ACAD_REACTORS
330
1C9
102
}
330
1C9
100
DictionaryVariables
280
     0
  1
2
  0
DICTIONARY
  5
1FA
330
1B
100
AcDbDictionary
280
     1
281
     1
  3
ACAD_XREC_ROUNDTRIP
360
1FB
  0
DICTIONARY
  5
1F8
330
16
100
AcDbDictionary
280
     1
281
     1
  3
ACAD_XREC_ROUNDTRIP
360
1F9
  0
DICTIONARY
  5
40
330
3F
100
AcDbDictionary
280
     1
281
     1
  3
ACAD_XREC_ROUNDTRIP
360
1FF
  3
BUMPTILE
360
41
  3
DIFFUSETILE
360
42
  3
OPACITYTILE
360
43
  3
REFLECTIONTILE
360
44
  3
REFRACTIONTILE
360
45
  3
SPECULARTILE
360
46
  0
DICTIONARY
  5
37
330
36
100
AcDbDictionary
280
     1
281
     1
  3
ACAD_XREC_ROUNDTRIP
360
1FE
  3
BUMPTILE
360
38
  3
DIFFUSETILE
360
39
  3
FBXASSET
360
3A
  3
OPACITYTILE
360
3B
  3
REFLECTIONTILE
360
3C
  3
REFRACTIONTILE
360
3D
  3
SPECULARTILE
360
3E
  0
DICTIONARY
  5
C
330
A
100
AcDbDictionary
280
     1
281
     1
  3
ACAD_XREC_ROUNDTRIP
360
1F7
  3
BUMPTILE
360
D
  3
DIFFUSETILE
360
E
  3
FBXASSET
360
F
  3
OPACITYTILE
360
10
  3
REFLECTIONTILE
360
11
  3
REFRACTIONTILE
360
12
  3
SPECULARTILE
360
13
  0
DICTIONARY
  5
4D
330
4C
100
AcDbDictionary
280
     1
281
     1
  3
ACAD_ROUNDTRIP_2008_TABLESTYLE_CELLSTYLEMAP
360
1F0
  3
ACAD_XREC_ROUNDTRIP
360
200
  0
DICTIONARY
  5
1FC
330
2B
100
AcDbDictionary
280
     1
281
     1
  3
ACAD_XREC_ROUNDTRIP
360
1FD
  0
DICTIONARY
  5
20D
330
1D6
100
AcDbDictionary
280
     1
281
     1
  3
ACAD_XREC_ROUNDTRIP
360
20E
  0
DICTIONARY
  5
215
330
1DA
100
AcDbDictionary
280
     1
281
     1
  3
ACAD_XREC_ROUNDTRIP
360
216
  0
DICTIONARY
  5
21D
330
1DE
100
AcDbDictionary
280
     1
281
     1
  3
ACAD_XREC_ROUNDTRIP
360
21E
  0
DICTIONARY
  5
211
330
1D8
100
AcDbDictionary
280
     1
281
     1
  3
ACAD_XREC_ROUNDTRIP
360
212
  0
DICTIONARY
  5
213
330
1D9
100
AcDbDictionary
280
     1
281
     1
  3
ACAD_XREC_ROUNDTRIP
360
214
  0
DICTIONARY
  5
22D
330
1E6
100
AcDbDictionary
280
     1
281
     1
  3
ACAD_XREC_ROUNDTRIP
360
22E
  0
DICTIONARY
  5
21B
330
1DD
100
AcDbDictionary
280
     1
281
     1
  3
ACAD_XREC_ROUNDTRIP
360
21C
  0
DICTIONARY
  5
205
330
1D2
100
AcDbDictionary
280
     1
281
     1
  3
ACAD_XREC_ROUNDTRIP
360
206
  0
DICTIONARY
  5
207
330
1D3
100
AcDbDictionary
280
     1
281
     1
  3
ACAD_XREC_ROUNDTRIP
360
208
  0
DICTIONARY
  5
209
330
1D4
100
AcDbDictionary
280
     1
281
     1
  3
ACAD_XREC_ROUNDTRIP
360
20A
  0
DICTIONARY
  5
20B
330
1D5
100
AcDbDictionary
280
     1
281
     1
  3
ACAD_XREC_ROUNDTRIP
360
20C
  0
DICTIONARY
  5
20F
330
1D7
100
AcDbDictionary
280
     1
281
     1
  3
ACAD_XREC_ROUNDTRIP
360
210
  0
DICTIONARY
  5
229
330
1E4
100
AcDbDictionary
280
     1
281
     1
  3
ACAD_XREC_ROUNDTRIP
360
22A
  0
DICTIONARY
  5
219
330
1DC
100
AcDbDictionary
280
     1
281
     1
  3
ACAD_XREC_ROUNDTRIP
360
21A
  0
DICTIONARY
  5
22B
330
1E5
100
AcDbDictionary
280
     1
281
     1
  3
ACAD_XREC_ROUNDTRIP
360
22C
  0
DICTIONARY
  5
201
330
4E
100
AcDbDictionary
280
     1
281
     1
  3
ACAD_XREC_ROUNDTRIP
360
202
  0
DICTIONARY
  5
227
330
1E3
100
AcDbDictionary
280
     1
281
     1
  3
ACAD_XREC_ROUNDTRIP
360
228
  0
DICTIONARY
  5
225
330
1E2
100
AcDbDictionary
280
     1
281
     1
  3
ACAD_XREC_ROUNDTRIP
360
226
  0
DICTIONARY
  5
21F
330
1DF
100
AcDbDictionary
280
     1
281
     1
  3
ACAD_XREC_ROUNDTRIP
360
220
  0
DICTIONARY
  5
221
330
1E0
100
AcDbDictionary
280
     1
281
     1
  3
ACAD_XREC_ROUNDTRIP
360
222
  0
DICTIONARY
  5
217
330
1DB
100
AcDbDictionary
280
     1
281
     1
  3
ACAD_XREC_ROUNDTRIP
360
218
  0
DICTIONARY
  5
203
330
4F
100
AcDbDictionary
280
     1
281
     1
  3
ACAD_XREC_ROUNDTRIP
360
204
  0
DICTIONARY
  5
223
330
1E1
100
AcDbDictionary
280
     1
281
     1
  3
ACAD_XREC_ROUNDTRIP
360
224
  0
XRECORD
  5
1FB
102
{ACAD_REACTORS
330
1FA
102
}
330
1FA
100
AcDbXrecord
280
     1
102
SHADEPLOT
 70
     0
102
SHADEPLOTRESLEVEL
 70
     2
102
SHADEPLOTCUSTOMDPI
 70
   300
  0
XRECORD
  5
1F9
102
{ACAD_REACTORS
330
1F8
102
}
330
1F8
100
AcDbXrecord
280
     1
102
SHADEPLOT
 70
     0
102
SHADEPLOTRESLEVEL
 70
     2
102
SHADEPLOTCUSTOMDPI
 70
   300
  0
XRECORD
  5
1FF
102
{ACAD_REACTORS
330
40
102
}
330
40
100
AcDbXrecord
280
     1
102
MATERIAL
148
0.0
149
0.0
149
0.0
 93
        0
 94
      127
282
     0
 72
     0
 77
     0
171
     0
175
     0
179
     0
273
     0
  0
XRECORD
  5
41
102
{ACAD_REACTORS
330
40
102
}
330
40
100
AcDbXrecord
280
     1
270
     1
271
     1
  0
XRECORD
  5
42
102
{ACAD_REACTORS
330
40
102
}
330
40
100
AcDbXrecord
280
     1
270
     1
271
     1
  0
XRECORD
  5
43
102
{ACAD_REACTORS
330
40
102
}
330
40
100
AcDbXrecord
280
     1
270
     1
271
     1
  0
XRECORD
  5
44
102
{ACAD_REACTORS
330
40
102
}
330
40
100
AcDbXrecord
280
     1
270
     1
271
     1
  0
XRECORD
  5
45
102
{ACAD_REACTORS
330
40
102
}
330
40
100
AcDbXrecord
280
     1
270
     1
271
     1
  0
XRECORD
  5
46
102
{ACAD_REACTORS
330
40
102
}
330
40
100
AcDbXrecord
280
     1
270
     1
271
     1
  0
XRECORD
  5
1FE
102
{ACAD_REACTORS
330
37
102
}
330
37
100
AcDbXrecord
280
     1
102
MATERIAL
148
0.0
149
0.0
149
0.0
 93
        0
 94
      127
282
     0
 72
     0
 77
     0
171
     0
175
     0
179
     0
273
     0
  0
XRECORD
  5
38
102
{ACAD_REACTORS
330
37
102
}
330
37
100
AcDbXrecord
280
     1
270
     1
271
     1
  0
XRECORD
  5
39
102
{ACAD_REACTORS
330
37
102
}
330
37
100
AcDbXrecord
280
     1
270
     1
271
     1
  0
XRECORD
  5
3A
102
{ACAD_REACTORS
330
37
102
}
330
37
100
AcDbXrecord
280
     1
 70
     1
 90
1959938040
 71
     1
  1
8316B136-5C14-4D9E-B2E6-813CE310FD1C
311
504B03040A0000080000E0A96F423DEE336E79000000790000001B0000006175746F6465736B2D64657369676E2D7061636B6167652E786D6C3C3F786D6C2076657273696F6E3D22312E302220656E636F64696E673D227574662D3822203F3E3C666F726D6174733E3C666F726D61743E687474703A2F2F736368656D612E
311
6175746F6465736B2E636F6D2F64657369676E2D7061636B6167652F323030393C2F666F726D61743E3C2F666F726D6174733E504B0304140006080800E0A96F42D486FD9CA0000000F4000000130000005B436F6E74656E745F54797065735D2E786D6C7D8EC10E82300C865F65E91D8A1E8C310C0EEA1BF002731658846E
311
D98AC1B77784ABF1D8FE5FBFBF75BBCE937A534CCEB38643598122B6FEE978D0B0485F9C41B54DDD7D022595594E1A469170414C76A4D9A4D207E29CF43ECE46F218070CC6BECC4078ACAA135ACF422C856C0E68EA1BF5669944DDD7BCDE7B1F8E415D77AECB980613C2E4AC91FC167A2B244592486606FC29C8FD7F045B9A
311
EF7053A7E60B504B0304140006080800E0A96F420F0A8BC0EB0000007C01000008000000636F72652E786D6C8D90D16EC3200C457F05F97522C52189BA885065EBFA05FB0144688ADA401460DAE78FB4A9B4BDEDC9D6F53DB675C5E17BBA912FB304EB5D07583020C6693F58377690E299EE811CA458BC8FBF6C409C9A4C07
311
AB0C528C8B4FF32669EFA27131ABCE0F661355082602D1B7DC7410F4C54CAA50296647B816B3D257359A029F5D8653B203791CB143DE67CFD62C20F7F8D6B0D3B1A2FCBD475A713CD1D7A62F29AB58CDFBEAA3E6CD51EC56588A68A7E77DBD1815CD00B264C829E314EBCF125BAC5B862F0C5BC6C46EB5FF81D23CFC134AD6
311
455E6EEF3EB00012F323F78114BB358B5CEE41E5BAE6267F00504B0304140006080800E0A96F4255019EA25F0000007C00000007000000636E782E786D6C4DCB3B0E80201045D1AD90E915ED2CF8AC45050C11660C8261F98AB1B07AC9C97D42D718D865D3E909258CFD00CCE24AC6E326A164D74DC0B4128928FF32603847
311
2BA13128B1252AC747C6BAB984FC68F0B87FE8960A5C09FE86CFB69FBA01504B0304140006080800E0A96F4225DA2AEF67010000020300000C0000006662782F636F72652E786D6C8D525B6EC32010BC0AE2B7C2801F511A61A2B4694ED00B109BB8566CB03058397ED78F284D154591258C66767667C716DB4BDBA041BBBE
311
B626C73C62186953D8B236558E833F9135465B299CB5FE4F194646B53AC7238CA5A89C0DDD0215D6786D3CA0C6967A0155DF6B8F51D1C025C77DF1A35B15A9E0A1A23F479D2ACEAAD2118F80863A297AEFC0009A878C2796A7E345D019972284BA5CD8BA8469F5A9D60ECB35FF58B1C33E25C9E78E9334E107F2BEDAC584A5
311
2C4B76E95796ACF6828E62297CDD5EDD154E2BAF4B2C63C613C212C2B3EF986F78B661FC8DF10D63828EE577A2D0952F8A426D7C122F7667598F25072313F16F5B88C8A35E0DE0874A41C710E135257C1F340402217B756CAE7B9C011A74E1AD4B81296DB851836A8286A90C4D8FA0330B9DA706B0D9C33EF1933ECF7BC007
311
54A6026BCAC3F518FC385DCC5397283AEDC8E02FC858D7AAE6666EB6783B6F831ECA0BDB58F78A9A2EABD2254C3AFEBDF217504B0304140006080800E0A96F421AEFEBBB7D0000009D0000000B0000006662782F636E782E786D6C4DCCD10A83201805E05791FFFE2FB5A2096AB441EF11CB42663A9C8E3DFE6C74B1AB73F8
311
381C397C7647DE26BE6CF00A584581187F0F8BF59B829C56BC0019B48C21A4BF19103FEF46C1C1A0E516437E9EB49875CE2E1575D63F4EEC26C159C71BECAF13C756508623A33D36A2742E6E9CB5146A2DEBDF53C9E3587F01504B0304140006080800E0A96F42F08C7B212801000013020000310000006662782F35463932
311
313532332D374246322D343930312D413130372D3339343930323943323134302F636F72652E786D6C8D515B6EC32010BC0AE22B55659BC576124798A8AD9413F4020E262E4A0C168F2AC7EFBA76A4F62F3F2C9A9D991D5871BC8F37F2AD7D30CEB614724689B6CAF5C60E2D4DF192ED29394AE19D8B7F6894D86ED42D9D61
311
2AC5E05D9A5648391BB58D885AD7EB15EC42D0911275C34B4B83FAD26397772922235CF3A953D76ED039E4D8469E14217A0C409621F349657D6A38D4BCCC76EF279E550D83EC0DD82E2B1BBCF3E68343C544B108A548C9F4ABDCF418C75C8CF6CF9ACC6229A2191FF195D75DD43D959C4199B13283FA93C301EA0383570607
311
869367FA3F519AFA2745C9D858F235EE220B548228968614BD4BE7DB238CBE4FCE4732CFDB04AD5EA86439C6826DB517C5C2C4F7A3E5B65A2D43741EFF77733D2319EAC5775B4951CC2BC2F2BB3FACF33AE50F504B0304140006080800E0A96F428FAA9A8B4D01000033030000300000006662782F35463932313532332D37
311
4246322D343930312D413130372D3339343930323943323134302F636E782E786D6CD593BB6E032110457F05D146FBC02F45168BA514F982146959183BC42CAC7844F1DF67B0B1E3C645CA346875E772EFE888E5BBEFC9922F08D1783750D6F69480535E1B7718684EFBE699929DE0C1FB7467A3C4C909065A642AF821F83C
311
5749C35E669B50B5C61DAB1820FA1C144494CB4D62BD921603C03519459846D01A34B919F16B0F015741713C91F401E4F5E59DF8F113548ABC2B298277A543F072D6A63B1325CACA18071AD5074CB29539790DF1D86A9964CBDA6BD7839D7E9348B970ADCCC190523ED0725251376A9123EF7028784C01E955533ACD40859C
311
676B944C08B93B1B2F1EC1B37169B3AA5E83E003BAD966B95A61D8792678321354870A2013682A163D5B36FDB261EBB705DBB2F5B6674F3DDBF63DEF8A5DF0D17B5B2F610C043F13E55D0297A860BC2BE347F8AA8F681390B50FA73F804400B5F542E796F19FF974E7F78DB802FE05E207504B0304140006080800E0A96F42
311
05CC4E939C0500007B100000340000006662782F35463932313532332D374246322D343930312D413130372D3339343930323943323134302F6F626A656374732E786D6CAD575D739B3814FD2B0CFB0C36C6C9263B844E6C271D4F376DA79E76F621331E018268233E4612A9B3BF7E8F406070EDD4BBD3174042BABAF7DC73
311
3F14BCDBE5DC7AA142B2B2B8B13D776A5BB488CB8415D98D5DABD4B9B2AD776120CA520D96D95641727A63EB693B0C3251D695994A684A6AAE0E66EF177F5932A605B5AD9813296F6C193FD19CB8A4566542E5B39B1045DC2CDDB99EDB2E1C8BCD04A99E0E845644D0424153CC179062B54A79E3E1D49E84C144FF0F03FD34
311
ABFCD3AB268D3DE3F359211529E21F0E3B10E37BF3D5DDECE2DAB998CF7D677E39F39CC5FD62E578BFFBD3E5E572797D7B778D83A5129064341134B5C3F7C046B03898B4BFC2A06685F267668971D044D017A63D658733CB0B26ED9ADE3A63E431F5E3B22868DC6005341AFB8CE88456B448E0734625341B20341D0F3D8DE3
311
E0B7AFC7E6C8E1F479080C770C0475BA77EFA1A665F4374C90E7304848AA19D862690C6DB93ADD231C952537FF98B472A2A860845B9C458288573BC452BD240C46623493858E066D811DC20BEDEF315D10463FE7F9312DD39A734D633B6CA2608B58A14A369AB17FA8D86B3F44063AC1579A0D57C620F55A513BBC6E297275
311
C0A616482BE52483CB61A6DEE9CF0E0C5DEA385DAFECF0C37DB4DBE8D83D7E7825CA8A0AA5E9036A758EEBDE1A25A3937796E7F406FB40953D285F80FC4784FA5E15F84DB0DD7C3737A728410A999622876FACA9E54CF1985A5EF3D4DF83AF60D26F1E7BEF149E70B686EA17E039B661E8CB019C61F002C297C237A66D62C2
311
91361E58018034492C5E620A79388D7676B846964356C62EC2430F2643DD177C0613230689A23969F02E80E5415A3C234103B6869150A325BF5170EFA71FD25973B059760ADE8B5F42D7DBD5E6C3A6162989E98389E9154D59C1144ADC9E37438546988F2C7AA6AFDF4B91C0D01FF1DE0CF1CECD5112686BCC35F05997D3F5
311
607FF2E88018FBB252A79BE02727C0085D5807F21F988C29E7A4A065DD9DFB66FD40D96821D6C1AE99DC17987D610169DA3F073188221D0B566910FB6AD5274DF784755FD71FC1483B5CBCFE495E87D92BDAE7DEB8E4A5D846AFDB362D1D85FADB98DB0683899602BA3741D2C5BF017D9BB034AD2592E0115CBFAD9743DFE9
311
B48014D1496DA3650EFB115C4418D2767251AD0541252D8B2D43DD44DC1D3D60281F901A0634024F692C294FB78CF33ADFA68CA31A6D73529D80E3FFEB1FD579B525795917EA84EC91EAA80E63DD47EC95DF898A9FEC70D3BC9D05726F42931364D0B5E4085623D75EF9DEE5C2F32F9D8BA53777E6ABEB3B6731BBBB74AE3C
311
7F79E77BD3FB9507D38D464D1315065DA9194634BC84D216D48219F77D5D237E4C12B0C307A2E4E3FB363CBBF7D7B58B5E3898600FEA65BFF1367941DF47939F0BD8AF3C2A689D579CE6B45044C7D083FEE05F08FA8C9132EDFC3A27193D43CAA7F79B03633073C6BECF3ADEE9F783BD6676A903F2A810F554E75141183FD8
311
98B548BA559119FC3A9FF4EFB6D074433D328E41672A4BCE12E4C1C4CA689953856C784611123995A0DEB0A74FCCDDE38CDD2F6D87A848C469A7C9134193CC25C20224AF63359EB77E4353A7FBAA1B1BE5D67DC6C3640ADB02676E6C34E98AC554BA110AB46E851AE1E0D2B0930767499171F4DAEDA67EDCEFD2D88C4A72BF
311
E49CFEC9D8D5A6706300D24885BE010D11BCD32813068D6EE67FFC9F0CEFD4B188C26754ABDE96FD446F4C730C42B435CADC16D0C43C9BA37708D4B7CDF2DC66CD0811FF9C3BC69B2468A53A8A88ACB92968FD8C4AB7ABCF137428D6FA9355F13A832FCF97E4080A32D73AC0C122B0C2C8AC880255977F3C7E16256EB2B975
311
CF4081C76599E7656106B7E6266C6D9E70AF4D1E9116A8BE90C8C7D9D49B3D3617017337D94644529724F21913F0A9603DC423C78391ED6D1115A8FDD1AF9B68271C7073BDB24C499B43A821CA30AB6A58D07214D442F4E8CBA48E95E182EACDBBC0A4590A1504BAF8F05F504B0304140006080000E0A96F42000000000000
311
000000000000350000006662782F35463932313532332D374246322D343930312D413130372D3339343930323943323134302F76657274696365732E62696E504B0304140006080800E0A96F42F270F1330600000004000000360000006662782F35463932313532332D374246322D343930312D413130372D333934393032
311
3943323134302F747269616E676C65732E62696E636660600000504B0304140006080000E0A96F42000000000000000000000000370000006662782F35463932313532332D374246322D343930312D413130372D3339343930323943323134302F617474726962757465732E62696E504B0304140006080800E0A96F42D598
311
7DFC8F00000041010000360000006662782F35463932313532332D374246322D343930312D413130372D3339343930323943323134302F6469726563746F72792E786D6C858F410EC2201045AF4266AF15DDB800BA74E7C21B903225242D6328188F2FA5C4183471359997F9FF81E89FF3C41E1816475E02DF1F80A11FC838
311
6F25A438EECEC07A250251FC3803E6F58C12560C4AD840E95E91C151A72936F496F35732D860FE635F62C8F2DA16B505C545B74125BAA2FA9E05D7CC053D063734D5C7665FD55B6B8D15D5E9BFEAFD8490FFA45E504B0304140006080800E0A96F42D0644178FD000000A00100003B0000006662782F35463932313532332D
311
374246322D343930312D413130372D3339343930323943323134302F7265736F75726365732F636F72652E786D6C8D504B6E833010BD0A9A6D65B0314429328E68D39CA017B0CC845A0936F2A7EAF16B0295DA5D3733A3F7D13C3D71FA9AEFC527FA609CED8195140AB4DA8DC64E3DA4782547284E5278E7E22F191456CDD8
311
C30A8314937769D921ED6C441B336ADD883BA842C00885BEE7A387A03F7056A54A312BC2AD5C94BEA9094B56663AEBA408D1E700C5F6649D203D0697BCC620AA8D95222533EE1A33E69FE66AD0833CB29703BD9C39E1AF03230D6717F27C186A421BDAF2A1796BF9E12CAAD52C4534F34F46ED51451C41D69471423961ED7B
311
CD3AD676943D51D6512AAA55FEC79496F19FA6646CE4F51E77B305902C07791052546B5F793DCACC7BED567E03504B010214000A0000080000E0A96F423DEE336E79000000790000001B00000000000000000000000000000000006175746F6465736B2D64657369676E2D7061636B6167652E786D6C504B01021400140006
311
080800E0A96F42D486FD9CA0000000F40000001300000000000000000000000000B20000005B436F6E74656E745F54797065735D2E786D6C504B01021400140006080800E0A96F420F0A8BC0EB0000007C010000080000000000000000000000000083010000636F72652E786D6C504B01021400140006080800E0A96F4255
311
019EA25F0000007C000000070000000000000000000000000094020000636E782E786D6C504B01021400140006080800E0A96F4225DA2AEF67010000020300000C00000000000000000000000000180300006662782F636F72652E786D6C504B01021400140006080800E0A96F421AEFEBBB7D0000009D0000000B00000000
311
000000000000000000A90400006662782F636E782E786D6C504B01021400140006080800E0A96F42F08C7B21280100001302000031000000000000000000000000004F0500006662782F35463932313532332D374246322D343930312D413130372D3339343930323943323134302F636F72652E786D6C504B010214001400
311
06080800E0A96F428FAA9A8B4D010000330300003000000000000000000000000000C60600006662782F35463932313532332D374246322D343930312D413130372D3339343930323943323134302F636E782E786D6C504B01021400140006080800E0A96F4205CC4E939C0500007B10000034000000000000000000000000
311
00610800006662782F35463932313532332D374246322D343930312D413130372D3339343930323943323134302F6F626A656374732E786D6C504B01021400140006080000E0A96F4200000000000000000000000035000000000000000000000000004F0E00006662782F35463932313532332D374246322D343930312D41
311
3130372D3339343930323943323134302F76657274696365732E62696E504B01021400140006080800E0A96F42F270F13306000000040000003600000000000000000000000000A20E00006662782F35463932313532332D374246322D343930312D413130372D3339343930323943323134302F747269616E676C65732E62
311
696E504B01021400140006080000E0A96F420000000000000000000000003700000000000000000000000000FC0E00006662782F35463932313532332D374246322D343930312D413130372D3339343930323943323134302F617474726962757465732E62696E504B01021400140006080800E0A96F42D5987DFC8F000000
311
410100003600000000000000000000000000510F00006662782F35463932313532332D374246322D343930312D413130372D3339343930323943323134302F6469726563746F72792E786D6C504B01021400140006080800E0A96F42D0644178FD000000A00100003B00000000000000000000000000341000006662782F35
311
463932313532332D374246322D343930312D413130372D3339343930323943323134302F7265736F75726365732F636F72652E786D6C504B0506000000000E000E00800400008A1100000000
310
504B03040A0000080000E0A96F423DEE336E79000000790000001B0000006175746F6465736B2D64657369676E2D7061636B6167652E786D6C3C3F786D6C2076657273696F6E3D22312E302220656E636F64696E673D227574662D3822203F3E3C666F726D6174733E3C666F726D61743E687474703A2F2F736368656D612E
310
6175746F6465736B2E636F6D2F64657369676E2D7061636B6167652F323030393C2F666F726D61743E3C2F666F726D6174733E504B0304140006080800E0A96F42D486FD9CA0000000F4000000130000005B436F6E74656E745F54797065735D2E786D6C7D8EC10E82300C865F65E91D8A1E8C310C0EEA1BF002731658846E
310
D98AC1B77784ABF1D8FE5FBFBF75BBCE937A534CCEB38643598122B6FEE978D0B0485F9C41B54DDD7D022595594E1A469170414C76A4D9A4D207E29CF43ECE46F218070CC6BECC4078ACAA135ACF422C856C0E68EA1BF5669944DDD7BCDE7B1F8E415D77AECB980613C2E4AC91FC167A2B244592486606FC29C8FD7F045B9A
310
EF7053A7E60B504B0304140006080800E0A96F42D13E5F5AEC0000007C01000008000000636F72652E786D6C8D904D6EC3201085AF82665B61837FE2D4C244495D9FA01740405C94182C03518E5F9C3852BBEB6A466FDE37337AEC709FAEE8A6176F9CED80660490B6D22963C70E6238E33DA003678B73E1970D901593EE60
310
9581B3717171DE24E96CD03624D53AA5375178AF0320794D4D075E7EEB49642286E4F0976C16F222469DD15797E0188D42CF2346A57DE66CF402BC22BB5351343B7CAAAB775C1D9B4F7C1C3E065C0FB4EFFB662075B967F90A7316CCF4BA2F172D8256C00B424B4C4A4CEBAF82B6B46E097D23B42584E5ABFD0F1467F54F28
310
1A1BCA627BF78979E0343DF2187096AF59A4F2082AD53537FE03504B0304140006080800E0A96F4255019EA25F0000007C00000007000000636E782E786D6C4DCB3B0E80201045D1AD90E915ED2CF8AC45050C11660C8261F98AB1B07AC9C97D42D718D865D3E909258CFD00CCE24AC6E326A164D74DC0B4128928FF326038
310
472BA13128B1252AC747C6BAB984FC68F0B87FE8960A5C09FE86CFB69FBA01504B0304140006080800E0A96F42E45166D168010000020300000C0000006662782F636F72652E786D6C8D525B6E833010BC8AE5DF0A6CF348D2C8384A9A72825EC00187A2808D8C8D72FC2E8F284D15451592B16676766707F8EEDA366850B6
310
AF8DCE300B29464A17A6AC759561EFCEC106A39DE0D618F7AB0C232D5B95E111C68257D6F86E810AA39DD20E506D4AB580B2EF95C3A868E092E1BEF856AD0CA57750D15FC24E161759A9908540439DE0BDB36000CD43C6138BF3E9CAC98C0BEE7D5D2E6C5DC2B4FA5C2B8B45425787285AAF82439ABC07C97EFD19ECF38F3C
310
4873763C1ED7394DE30D27A3587057B737778555D2A9128B88B238A071C0D2AF886D59BAA5EC8DB22DA59C8CE50F22DF95FF14F95ABB385AECCEB21E0B064626E2CFB6109143BD1CC00F119C8C21C26B4AF8316808044276F2D4DCF6B80034A8C2199B00531A7FA706D9780553299A1E4E66163A4F0D60B3A77DA2177D5EF7
310
800F287505D6A483EBC9BB713A9FA72E5174CA0683BB226D6C2B9BBBB9D9E2FDBC0F7A2A2F4C63EC7FD46459952C6192F1EF153F504B0304140006080800E0A96F424F1D75967D0000009D0000000B0000006662782F636E782E786D6C4DCCD10AC2201886E15B91FFDCD652CB1FD48194F7319A1B23A7611A5D7E5BECA0A3
310
0F1E3E5ED57D9640DE3EBFE61435B48723101FEF6998E3A4A196914A209D5139A5F2770312FBC56BD8188C9A72AACF9D063FF6359455C31C1F3BB293E042724B6F676629970E2972D65264E28257EED0A185C6A8E6575A770B9B2F504B0304140006080800E0A96F423995B9782901000013020000310000006662782F3332
310
3534353834422D453633422D343846392D393433312D3933353739443446394639422F636F72652E786D6C8D515B6EC32010BC8AC557AACA3618EC860813296A73825EC031244589C1E251E5F85D6A476AFFF2C3A2D999D98115FBFB742BBEB50FC6D91E910AA342DBD129632F3D4AF15C6E51B197C23B17FFD050618749F7
310
28C3488A8B77695EA1D1D9A86D04D43AA55770084147548C37B8F4288C5F7A1AAA214560846B350FE375B8E88A54D0069E14217A08502C43F289246D5AD66ED9A1FCE8E8A164DB232F39A3A4E4B47DE3EFECC88FFC20EA4528454A46AD72A3208E391BED9F35C96229A2991EF147AF87A815920D26B4C4B424ED674376A4DD
310
61F28AC90E635167FA3F519AD593A2646CA4CD1A7791052489A8978614CAA5D3ED1146DF67E76391E76D821E5F90C415C4EA28E1A25E98F07EB0ECD86A19A2F3F0BF9BEB09C874F5ED9814755E1194DFFD41CDEB943F504B0304140006080800E0A96F42E90D559C5501000033030000300000006662782F33323534353834
310
422D453633422D343846392D393433312D3933353739443446394639422F636E782E786D6CBD93CD6EC32010845F0571ADFC439C44518489D4439FA0875E316C521A0C16E0AA79FB2E094973C9A152D50BB2668799D527CC775FA3259F10A2F1AEA7AC6E2901A7BC36EED0D339EDAB0D253BC183F7E9CE46899323F434CB54
310
F043F0F354240D7B39DB84AA35EE58C400D1CF41414439DF24D62B6931005C35A308E3005A832637237EED21E02A280E2792DE81BC3CBF113F7C804A91373945F02677089ECFD27467A2445919634FA37A8751D6724E5E433CD65A2659B3FADAF560A79F24922F5C2BE760482EEF693EA9281BD5C8913738143CA680F48A29
310
9D26A0424E93354A2684DC9C8D178FE0B37169BD2C5E83E003BABBC57AB3C1B0F34CF06446280E154026D0542C5AD6556D57B1D5EB826DD96ADBB2A7966DDB9637D92EF8E0BD2D973006829F88F22E814B5430DEE4F1237CC547B409C8DA87D32F402280D27AA173CBF84B3E6CDD2D97FFC8A739BF6FC415F02F10DF504B03
310
04140006080800E0A96F42178DFAE259070000941B0000340000006662782F33323534353834422D453633422D343846392D393433312D3933353739443446394639422F6F626A656374732E786D6CED59DD73A33610FF5718FA6C6C8293261DC24D6227379E367737E7DE4D1F32C3C8201335423092C8C5FDEBBBFA000331
310
096ED3B73ED8809056BBBFFDD4127E78CEA9F384B92005BB747D6FE63A9825454A5876E956723B39779D0F51C88B42B6A6B90E4339BE74D5B01B85192FAAD20EA5788B2A2A7BA3B7D77F3822C10CBB4E42911097AE481E708E3C54C922C5E2D14B91445EB67DF67CCF4CEC92CD382A1F7A444BC43193C0298C33A0E218A6FC
310
EEE3CC9D46E154BD8F42F56F6705A366CD87674DB5D45D2E091312B1E4054B3D32C12896027FBEBC3939BD989CCEE7C1647E76E24FAE6FAF9713FFE760B6385B2C2EAE6E2E80BD4D51502B538A4BCC52D0DFCE8DFC70AADE34A25B040E719D148CE14403095069B1FA040916B0550BBE59F7D15712B55E6B095BCF73F5DEB2
310
D01A0EBA5486668D03A2431704B1DBD512D7D7B67CC5E64F105C8C314A2EB0046E85E4A05D0B0F07AF70A3593835A351B8D9EB82082747127382A843C986230E4A81A96A4A149A05968C720E0EA41C2581D69C79DDB52DF0CCB75DE71097DB8A52E5196EA41D2B06F7C35268CEC85F98EFB96F23033C81B41561F2DC722977
310
2576A38B70AA07A3505D8213FBD200E96C29CA8446C4BCED09BA50AEBF5ABAD1AFB79BE7B50A0787372F7951622E95D1293D6ABEC090ED55A164B7F547694E2D00610CA876E51E94AF80FC27881E7B56406F9C3CCF9FE776AEE488896DC173D08D33732633F89B39BEFE57F7ADBB70DA2CEE6A6F084F705305D5F9BFC7B32B
310
83C6CAF2DF82330A9FC0E00B1ED857EB0451B0E73BC2002065240E2D600842FB76F3EC462B089C10E86115A2910F2203BB4F701B4E2D99BD566AF7B25EC70051BB47304649009BB6486063404F1F217B7092ECD5D4167108DED37731D7ABE5FAD775C5B728C177D6A797784B189190350F33D4C1BC23D123DEFD28780A82BE
310
C47BDDC63BB75B09405B61AE80CF6A10D4C37EE7CE0609ACCB0A156EC23776002154AE6ED1BF2322C19422868BAADEB7896ECA501B8FB735831B9D188883939E0973FC445455014EB39FD16114F27EC249A94074A38F46B226687A03D27D5B7D028B6CE60FCC5A3108BD0CD1DF75D03A8043C7B26BA42D108DC09B7D384F0A
310
5AF078B38B4DA473A1960036BADEF2BD431462BD5192A2021EA4FDAE0E299991364EC9765B0988AB0758FCBE5AB4CD61E605FEA9D3FEEF39E31CA22DF82EE2D6EF7A7BC42447198EB7281DDAAEBD5B435B689203A439DE52908B3C11B98B918C6729CE8E81E628E217EF4A3DA38510846101F9EA20F86D34661E0412A3CD9A
310
65A5D51ED044C43996881E8380223300AE4E3BBAC64DA074789BC7C67A5FD3589BE87F64111C412D59B09840290A39E44DC67DEF146248175D83720F5FB0B69AB6168356504224BBF80726D9833C0675437E00F7048E24958C8B122560D623C8BEF015A5D41EEF1B943CAAFC1127157D2F0311986E63426995C7F0230C4E1E
310
635CBB094CAFA2D0226E629FC439146548567CCC2667A7B317FB989AA11F025B1B6D0985B01DE7A81C40BD1310753DE234E05BEA034ADD547919A3BCA8D82843F182BE3759F27DB52AB223F955A522948D35614B300A09934D56AD633698BA0EACE0463A50ED6281F2929A53D81B89C76FBC49531EDC805B3F7DDF0D7228FC
310
06B4D78EA8F31A06CB63A730103F904C1EDC68ADAF936BA8BF539CEE537D5D6BB62B40404C45F28A13ABA26F2B286F6C8DE64677488AFB8F26EBD6D76F2B0FBA1FE114D640EDD22C5C29A073CC245295C99DBAA15F1184E00E0D33BE5239F5182A5769AAAB46446FC9903A3B654467D39C78E50366450E3F764F5842AB14DF
310
A3543CC67792C66BA258B7527A39A9317E55C0CF1FD73D78606484485F5481877FF4D6DAD1852A970E12910F55BE61884010EC889619DD7825CBAC466A2D375775A680BA0B0CCCAA78FEFFC9A2DD8EF8FF649159C3F857278BEBDD6F68D7EE8BB4D279A2ECFAA86340939F1495F73806E8B64343B5C92226995BF9AD33C510
310
14EB283FBA1AAB83862138C4F13FCEDA4359D06CD7E3FFB8ACEDBFA8388ECA2A9DC9AA4B75A0725DB573D879E09F5DFBC1D9E474E1CF27F3E5C5CDE4FAE4E66C72EE078B9BC09FDD2EFD4583A676D4286C8299CE5DF06C825A3DAC9E2C06D095150525299CE65327C310F3259CE947B4CF798E0524CF76B33BB54DF911AB9F
310
4C9F53A20DC535270F081AC454405A078CAA4476C79D9FA03529E1A07DE942D3C87B843F6B95AE0399E7D2855681240916DE06DA4CAAA1A78943CAD5B9DF12037C10CB544A348B9AE76695C2A613FE9B2963D28095ABD3C380C2AD84EE57A743A179B33C2547095EB3E32009B79B4A42B56664D90F34C2E86DF6EA37B251C2
310
1EEDD6CFE0BAAF8BE57B7A4E0791604CA7FC552330542712F14CF7BB156396A5ABE59729F4D99CD567A7A45506BA1C4F69C2311873A50A2AB022B00A4BB344124C75F1CBFD175EC0279EDCD155D1FDA2C8F382D9872B388FA5F089C8593FC0079FF41ECA06ACDAEAE2FE64E69FDCEB76B6EDB0C71B24B0A7EA2118A8CB0825
310
42CFD8C0225FB4A66CE372AA94D09BBE5A3A367C421BC058D08BEEAEF9BCE580F7A80F29CA57B487D772BEDAD19EEAA9600D1C7AD1D1DF504B0304140006080000E0A96F42000000000000000000000000350000006662782F33323534353834422D453633422D343846392D393433312D3933353739443446394639422F76
310
657274696365732E62696E504B0304140006080800E0A96F42F270F1330600000004000000360000006662782F33323534353834422D453633422D343846392D393433312D3933353739443446394639422F747269616E676C65732E62696E636660600000504B0304140006080000E0A96F42000000000000000000000000
310
370000006662782F33323534353834422D453633422D343846392D393433312D3933353739443446394639422F617474726962757465732E62696E504B0304140006080800E0A96F42D5987DFC8F00000041010000360000006662782F33323534353834422D453633422D343846392D393433312D39333537394434463946
310
39422F6469726563746F72792E786D6C858F410EC2201045AF4266AF15DDB800BA74E7C21B903225242D6328188F2FA5C4183471359997F9FF81E89FF3C41E1816475E02DF1F80A11FC8386F25A438EECEC07A250251FC3803E6F58C12560C4AD840E95E91C151A72936F496F35732D860FE635F62C8F2DA16B505C545B741
310
25BAA2FA9E05D7CC053D063734D5C7665FD55B6B8D15D5E9BFEAFD8490FFA45E504B0304140006080800E0A96F42B9D4026BFE000000A00100003B0000006662782F33323534353834422D453633422D343846392D393433312D3933353739443446394639422F7265736F75726365732F636F72652E786D6C8D50596E8330
310
10BD0A9ADFCA60B33429328E92524ED00B586642AD041B79A97AFC9A40A5F6AF3F33A3B7689E1E3F7DCDF7EC139DD7D674C0720A191A65476DA60E62B892236427C19DB5E1970C322367EC608541F0C9D9B8EC90B226A009093576C41D94DE63804CDDD3D181571F38CB5CC69014FE962F52DDE48439CB139D7482FBE05280
310
6C7BB24E100EBD8D4EA1E7C5C60A1EA31E778D1ED34F7DD5E840D4F4F9529687865C9AFA85D4E7C31B390FAF036906D6F7FD61A04D75E4C56A163CE8F927A37228038E204ACA2A422BC29AF792B5AC69297BA2ACA59417ABFC8F292EE33F4D519B50957BDCCDE641B014E441085EAC7DA5F52833EDB55BF10D504B01021400
310
0A0000080000E0A96F423DEE336E79000000790000001B00000000000000000000000000000000006175746F6465736B2D64657369676E2D7061636B6167652E786D6C504B01021400140006080800E0A96F42D486FD9CA0000000F40000001300000000000000000000000000B20000005B436F6E74656E745F5479706573
310
5D2E786D6C504B01021400140006080800E0A96F42D13E5F5AEC0000007C010000080000000000000000000000000083010000636F72652E786D6C504B01021400140006080800E0A96F4255019EA25F0000007C000000070000000000000000000000000095020000636E782E786D6C504B01021400140006080800E0A96F
310
42E45166D168010000020300000C00000000000000000000000000190300006662782F636F72652E786D6C504B01021400140006080800E0A96F424F1D75967D0000009D0000000B00000000000000000000000000AB0400006662782F636E782E786D6C504B01021400140006080800E0A96F423995B97829010000130200
310
003100000000000000000000000000510500006662782F33323534353834422D453633422D343846392D393433312D3933353739443446394639422F636F72652E786D6C504B01021400140006080800E0A96F42E90D559C55010000330300003000000000000000000000000000C90600006662782F33323534353834422D
310
453633422D343846392D393433312D3933353739443446394639422F636E782E786D6C504B01021400140006080800E0A96F42178DFAE259070000941B000034000000000000000000000000006C0800006662782F33323534353834422D453633422D343846392D393433312D3933353739443446394639422F6F626A6563
310
74732E786D6C504B01021400140006080000E0A96F420000000000000000000000003500000000000000000000000000171000006662782F33323534353834422D453633422D343846392D393433312D3933353739443446394639422F76657274696365732E62696E504B01021400140006080800E0A96F42F270F1330600
310
00000400000036000000000000000000000000006A1000006662782F33323534353834422D453633422D343846392D393433312D3933353739443446394639422F747269616E676C65732E62696E504B01021400140006080000E0A96F420000000000000000000000003700000000000000000000000000C4100000666278
310
2F33323534353834422D453633422D343846392D393433312D3933353739443446394639422F617474726962757465732E62696E504B01021400140006080800E0A96F42D5987DFC8F000000410100003600000000000000000000000000191100006662782F33323534353834422D453633422D343846392D393433312D39
310
33353739443446394639422F6469726563746F72792E786D6C504B01021400140006080800E0A96F42B9D4026BFE000000A00100003B00000000000000000000000000FC1100006662782F33323534353834422D453633422D343846392D393433312D3933353739443446394639422F7265736F75726365732F636F72652E
310
786D6C504B0506000000000E000E0080040000531300000000
  0
XRECORD
  5
3B
102
{ACAD_REACTORS
330
37
102
}
330
37
100
AcDbXrecord
280
     1
270
     1
271
     1
  0
XRECORD
  5
3C
102
{ACAD_REACTORS
330
37
102
}
330
37
100
AcDbXrecord
280
     1
270
     1
271
     1
  0
XRECORD
  5
3D
102
{ACAD_REACTORS
330
37
102
}
330
37
100
AcDbXrecord
280
     1
270
     1
271
     1
  0
XRECORD
  5
3E
102
{ACAD_REACTORS
330
37
102
}
330
37
100
AcDbXrecord
280
     1
270
     1
271
     1
  0
XRECORD
  5
1F7
102
{ACAD_REACTORS
330
C
102
}
330
C
100
AcDbXrecord
280
     1
102
MATERIAL
148
0.0
149
0.0
149
0.0
 93
        0
 94
      127
282
     0
 72
     0
 77
     0
171
     0
175
     0
179
     0
273
     0
  0
XRECORD
  5
D
102
{ACAD_REACTORS
330
C
102
}
330
C
100
AcDbXrecord
280
     1
270
     1
271
     1
  0
XRECORD
  5
E
102
{ACAD_REACTORS
330
C
102
}
330
C
100
AcDbXrecord
280
     1
270
     1
271
     1
  0
XRECORD
  5
F
102
{ACAD_REACTORS
330
C
102
}
330
C
100
AcDbXrecord
280
     1
 70
     1
 90
1959938040
 71
     1
  1
E0E122DC-47E9-4819-AEAA-7D082F838C16
311
504B03040A0000080000DCA96F423DEE336E79000000790000001B0000006175746F6465736B2D64657369676E2D7061636B6167652E786D6C3C3F786D6C2076657273696F6E3D22312E302220656E636F64696E673D227574662D3822203F3E3C666F726D6174733E3C666F726D61743E687474703A2F2F736368656D612E
311
6175746F6465736B2E636F6D2F64657369676E2D7061636B6167652F323030393C2F666F726D61743E3C2F666F726D6174733E504B0304140006080800DCA96F42D486FD9CA0000000F4000000130000005B436F6E74656E745F54797065735D2E786D6C7D8EC10E82300C865F65E91D8A1E8C310C0EEA1BF002731658846E
311
D98AC1B77784ABF1D8FE5FBFBF75BBCE937A534CCEB38643598122B6FEE978D0B0485F9C41B54DDD7D022595594E1A469170414C76A4D9A4D207E29CF43ECE46F218070CC6BECC4078ACAA135ACF422C856C0E68EA1BF5669944DDD7BCDE7B1F8E415D77AECB980613C2E4AC91FC167A2B244592486606FC29C8FD7F045B9A
311
EF7053A7E60B504B0304140006080800DCA96F420B3E3186EA0000007C01000008000000636F72652E786D6C8D90416EC3201045AF82665B610336726361A2A6564ED00B20202E4A0C9681AAC72F4E1CA9DD7535A33FFFCD8CBE387ECF37F465D7E8821F80560490F53A18E7A70172BAE057404729D610D22F1B20AF663BC0
311
268314D31AF2B24B3AF8647D2AAA0FC6EEA28AD12640FA569A01A2FEB4B3AA544EC511AFD5A2F4554DB6A2CFAEC0393B831E479C29FBDCC5D91524391CDE46CA1BDC767CC4EDF99DE113E11C137EE61DEB46CA4E9DA837588AE4E6E77DBD5A95AC01C9086D306930E51F8CF6B4ED79F742684F88A837FB1F282FE69F50763E
311
356C7FF7814590B43C721F48516F5994720FAAD42D37F903504B0304140006080800DCA96F4255019EA25F0000007C00000007000000636E782E786D6C4DCB3B0E80201045D1AD90E915ED2CF8AC45050C11660C8261F98AB1B07AC9C97D42D718D865D3E909258CFD00CCE24AC6E326A164D74DC0B4128928FF326038472B
311
A13128B1252AC747C6BAB984FC68F0B87FE8960A5C09FE86CFB69FBA01504B0304140006080800DCA96F426CC4E84667010000020300000C0000006662782F636F72652E786D6C8D525B6E833010BC8AE5DFCAD8E621DAC8386A1AE504BD80030E45011B191BE5F85D1E519A2A8A222463CDECECCE0E88EDA56BD1A8DDD058
311
53601E318CB4296DD598BAC0C19FC83B465B299CB5FE4F19464675BAC0138CA5A89D0DFD0A95D6786D3CA0C6567A05D530688F51D9C2A5C043F9A33B15A9E0A1623847BD2ACFAAD6118F80863A2906EFC0005A864C2796A7E345D005972284A65AD9A68269CDA9D10E4BF6F1F1B9E75942D23CDB93F4F015931DCB32C2B243
311
96C7F99EC7BB5CD0492C856FBAABBBD269E5758565CC7842584278F61DF30D4F3759FEC6F8863141A7F23B51E8AB1745A1313E8957BB8B6CC092839199F8B72D44E4D1A046F043A5A05388F09A13BE0F1A028190BD3AB6D73DCE008DBAF4D6A5C05436DCA851B541C35486E647D08585CE7303D8EC619FF8499FE73DE0032A
311
538335E5E17A0C7E9A2E96A96B14BD7664F41764ACEB547B33B758BC9DB7410FE5A56DAD7B454DD755E91A269DFE5EF90B504B0304140006080800DCA96F42226C26507D0000009D0000000B0000006662782F636E782E786D6C4DCCD10A83201886E15B91FFDCB534E91FA81173BB8F581632D3703A76F9ABD1C18E3E78F8
311
7865F7593C79DBF4723128A84F6720363CE2E8C2ACA0E48922904ECB1463FEBB0109C36215EC0C5ACE2996F5A0D14E43F17953EFC2F340DEE3BD118C51864CD0A6C60BEDF9CDD02BB6882D33A6171C2A2DAB5F69DB3DACBF504B0304140006080800DCA96F42BB100D1B2C01000014020000310000006662782F3341384634
311
3532322D323832352D343138392D413345442D4338373838373244444135332F636F72652E786D6C8D515B6EC32010BC0AE22B55850DD88EED0813454D7B825E806092A2C460F1A872FC42ED48ED5F7E58343B333BDA65FBFB7403DFCA796DCD004981215046DA519BCB006338A30E823D67CEDAF087068111931A60862167
311
1767E3BC42D29AA04C48A8B1A35A41E1BD0A10C85BFA0CD0CB2F358942C49018FE5ACC425EC54515A448EDC4E3CC0797028065487E21AF0EDD47DD508A68471B5493AE4787EAFD88DEBAB6EB5A7A3C1E9A8A958B90B318F5B8CAF598E2E8B356EE59932CE62CE8E9115F3A25821A21A79854085788349F94EC48BD6BDA574C
311
7618B332D3FF89E23C3E298ADA848AAE711799879CB072697036DA78BA3DC2A8FB6C5D0079DEC62BF902392E52AC7E8BFB9E950B352D20796EEBD5D307EBD28237D75362936631DED69C95F946A9FC1E30D57C4FFE03504B0304140006080800DCA96F426D798CD84E01000033030000300000006662782F33413846343532
311
322D323832352D343138392D413345442D4338373838373244444135332F636E782E786D6CD593CD6EC32010845F0571ADFC43E2A4558489D4439FA0875E316C121A0C16E0AA79FB2E094973C9A1C75E90353BCCAC3E61BEFD1E2DF982108D773D65754B0938E5B571FB9ECE6957BD50B2153C789FEE6C943839424FB34C05
311
DF073F4F45D2B093B34DA85AE38E450C10FD1C144494F34D62BD921603C055338A300EA035687233E2D70E02AE82E27022E900E4EDF583F8E113548ABCC9298237B943F07C96A63B1325CACA187B1AD5014659CB39790DF1586B9964CDEA6BD7839D7E9348BE70AD9C8321B9BCA7F9A4A26C542347DEE050F09802D22BA674
311
9A800A394DD62899107273365E3C82CFC6A57557BC06C10774B3F5B2EB30EC3C133C99118A4305900934158B962DAB7659B1D5FB826D58B7593D3FB56CD3B6BCC976C107EF6DB9843110FC449477095CA282F1268F1FE12B3EA24D40D63E9CFE00120194D60B9D5BC67FE6D39CDF37E20AF817881F504B0304140006080800
311
DCA96F42001BA1ED9B0500007A100000340000006662782F33413846343532322D323832352D343138392D413345442D4338373838373244444135332F6F626A656374732E786D6CAD575D8F9B3814FD2B887D260949DA66560C552699A9A26ADAAA51AB7D1829326018EF188C6C33CDECAFDF633004D2649A5DF52504737D
311
7DEFB9E77E3878BFCFB9F34CA562A2B876FDD1C47568118B8415D9B55BE9D45BB8CEFB309042E89E98EB1424A7D7AE5976C32093A22AED52425352717DB47A77F397A3625A50D7893951EADA55F123CDC988545A24543D8D12A2C9284BF7237FD4080ED56692948F474A4B2269A16129D60B68711AA3FCE1EBC41D87C1D87C
311
0F03F36BA566E7A5C6B53FC3F359A13429E29F0E3B5233F3E7EBDBE99B2BEFCD7C3EF3E66FA7BE777377B3F6FC77B3C9EAED6A75B5BCBDC2C14A4B68B296489ABAE1076023591C8C9B4F6150B142CFA656C406682CE933339172C3A9E307E346A6F3CE3A79CAFC5814058D6BAC8046ED9F559DD092160962CEA882653D8426
311
C357DFE0D8FB3C33EFF6C8FEF26508F477F414B5B6B7CFBEA522FA1B2EA84B182415350C6CB0B48E365C9D1C108E84E0F61B534E4E34958C7087B34812F9E28610352261305063982C4D36180FDC1051683E0FE98234FA35CF4F5999569C1B1ABB619D053BE40AD5AAB68CFD43E5C1FA3E32B009B1326C585887F44B49DDF0
311
AAA1C8E2884D0D904ECA498690C34DB373363D727465F274B376C38F77D17E6B72F7F4E1A5142595DAD007D46A03D73E0D4AD626FFA2C8990DEE91290750BE02F94F48F58329889B64FBF97E6E4FD192142A1532476C9C89E34DF03371FCFAD7FCEFFD0BC6DDE661F4CEE189601BA87E039E431FFAB1ECC11906CF20BC9033
311
EBDA36261C65E39E1500C890C4E1024BA8C369B477C30DAA1CAA3276111EFA7019E63EE36F30B66A5028EA937ACF02581E95C50B0A3460AB1909331AF25B030F71FAA99CD5075BB173F0BEF92D745DAEB71FB7954C494CEF6D4EAF69CA0AA6D1E20EBCE91B34C07CE0D1137DF9216402477FC67BDBC73BB74729A06D3037C0
311
676D4D372F87930707C4D89709536E825F9C00274C63EDE9BF672AA69C93828AAA3DF7D5FE81B6D1406C92DD30B96B3087C602D2345F8E72104D3A96AC342076DDAA2B9AA333DE7DDB7C022321CF4544F841283A94DE58702177D1CBAEA94A2791FE3EA4B685606CB480ED758EB4E96F31DF252C4D2B851A7802D6EF9B553F
311
74A62AA042B45A9B6499C37DE4169196B3AD5E346B49D04845B163689B48BB9307F4F503514B805AE1398B15E5E98E715EE5BB947134A35D4ECA3370FC7FFBA32A2F77241755A1CFE81E988EE630B47D405EF583E8F8D10DB7F5D3BB41E94D687208F340D8B49213580D427B3BB9F5A7D3F5CA9BBFBBBDF2E60BFFCA5BDE2E
311
97DEBBF56431BD5BCC162BFF6D1BA7467918B49DA69FD088123A5B504966C3F76D83F4B135C00DEF89560F1F9AEC6C9FDF36238CC2C1187BD02EBB8DCBE419631F4D7EADE0207952D1262F39CD69A18949A17BF3877F25183306C634EB9B9C64F4022D9F3F6C8F9CC1CA05FBBE9874A73F8EF6DAD59549C8934AF463954705
311
61FC6863D620392A8BCCE2D7C6A47B367DA67D356F3630184C95E02C41194C9C8C8A9C6A14C30B7A90CCA902F5FA237D62AF1E17EC7E6E06444D224E5B4B1E096664AE9016A05615EBE1BAF307663A33565DBBE8B6A327FCD84AE13AE0CCB58B195DB398AA5184FE6C26A15A39B8D41FE431F79322E318B59B4DDD7BB7CB60
311
33E8C89DC825E393F5ABA9E0D6019491126303E62144A736260C6ADBECF7F83F39DE9AE3108DBF51A53B5F0E0B9D33F53148D1C6297B59C00CF3648FDE23515F77CB1FD53203442EBA64BD4A8246ABA789CCEA8B82B1CF9AB45C7F19634071369F9D9257196279B9264F5290B932090E16811556674934A8BAFAF3E18B14B8
311
C8E6CE1D03051E5622CF45615F96F622EC6C1F71AD4D1E5016A8B98FA887E9C49F3ED4F7007B35D94544D11149D413161053C93A88078107239BCB223A50F3A1931B9B201C7173B3766C4B9B43A9254ABFAA1A58307114D441F698BBA4C995BE40F9EA55605C8BC20489213EFC17504B0304140006080000DCA96F42000000
311
000000000000000000350000006662782F33413846343532322D323832352D343138392D413345442D4338373838373244444135332F76657274696365732E62696E504B0304140006080800DCA96F42F270F1330600000004000000360000006662782F33413846343532322D323832352D343138392D413345442D433837
311
3838373244444135332F747269616E676C65732E62696E636660600000504B0304140006080000DCA96F42000000000000000000000000370000006662782F33413846343532322D323832352D343138392D413345442D4338373838373244444135332F617474726962757465732E62696E504B0304140006080800DCA96F
311
42D5987DFC8F00000041010000360000006662782F33413846343532322D323832352D343138392D413345442D4338373838373244444135332F6469726563746F72792E786D6C858F410EC2201045AF4266AF15DDB800BA74E7C21B903225242D6328188F2FA5C4183471359997F9FF81E89FF3C41E1816475E02DF1F80A1
311
1FC8386F25A438EECEC07A250251FC3803E6F58C12560C4AD840E95E91C151A72936F496F35732D860FE635F62C8F2DA16B505C545B74125BAA2FA9E05D7CC053D063734D5C7665FD55B6B8D15D5E9BFEAFD8490FFA45E504B0304140006080800DCA96F4218951F1EFD000000A00100003B0000006662782F334138463435
311
32322D323832352D343138392D413345442D4338373838373244444135332F7265736F75726365732F636F72652E786D6C8D504B6AC33010BD8A996D912DC9166E82ACD0D4E404BD80902789482C197D4A8F5F3971A1DD753333BC0FF378F2F035DFAB4F0CD17A3700AB2954E88C9FACBB0C90D399BC42755032789F7EC9A0
311
727AC601561894BC049F970D32DE2574A9A0CE4FB8813A464C50997B390688E68AB3AE754E45116FF5A2CD4D5FB06675A18B4EC9984209503D9FAC1354C0E873301865F36495CCD94E9BC64EE5A73D5B0CA0E86EF73632C149D78B9174A7774E8E540842C549F4BC1F193FF6B259CD4A263BFF64340175C20914A7AC25B425
311
4C7C70B667DD5EF42F94ED2995CD2AFF63CACBF44F53B62EB57C8BFBB44550AC0479104A366B5F653DCA2C7BED567D03504B010214000A0000080000DCA96F423DEE336E79000000790000001B00000000000000000000000000000000006175746F6465736B2D64657369676E2D7061636B6167652E786D6C504B01021400
311
140006080800DCA96F42D486FD9CA0000000F40000001300000000000000000000000000B20000005B436F6E74656E745F54797065735D2E786D6C504B01021400140006080800DCA96F420B3E3186EA0000007C010000080000000000000000000000000083010000636F72652E786D6C504B01021400140006080800DCA9
311
6F4255019EA25F0000007C000000070000000000000000000000000093020000636E782E786D6C504B01021400140006080800DCA96F426CC4E84667010000020300000C00000000000000000000000000170300006662782F636F72652E786D6C504B01021400140006080800DCA96F42226C26507D0000009D0000000B00
311
000000000000000000000000A80400006662782F636E782E786D6C504B01021400140006080800DCA96F42BB100D1B2C0100001402000031000000000000000000000000004E0500006662782F33413846343532322D323832352D343138392D413345442D4338373838373244444135332F636F72652E786D6C504B010214
311
00140006080800DCA96F426D798CD84E010000330300003000000000000000000000000000C90600006662782F33413846343532322D323832352D343138392D413345442D4338373838373244444135332F636E782E786D6C504B01021400140006080800DCA96F42001BA1ED9B0500007A10000034000000000000000000
311
00000000650800006662782F33413846343532322D323832352D343138392D413345442D4338373838373244444135332F6F626A656374732E786D6C504B01021400140006080000DCA96F420000000000000000000000003500000000000000000000000000520E00006662782F33413846343532322D323832352D343138
311
392D413345442D4338373838373244444135332F76657274696365732E62696E504B01021400140006080800DCA96F42F270F13306000000040000003600000000000000000000000000A50E00006662782F33413846343532322D323832352D343138392D413345442D4338373838373244444135332F747269616E676C65
311
732E62696E504B01021400140006080000DCA96F420000000000000000000000003700000000000000000000000000FF0E00006662782F33413846343532322D323832352D343138392D413345442D4338373838373244444135332F617474726962757465732E62696E504B01021400140006080800DCA96F42D5987DFC8F
311
000000410100003600000000000000000000000000540F00006662782F33413846343532322D323832352D343138392D413345442D4338373838373244444135332F6469726563746F72792E786D6C504B01021400140006080800DCA96F4218951F1EFD000000A00100003B00000000000000000000000000371000006662
311
782F33413846343532322D323832352D343138392D413345442D4338373838373244444135332F7265736F75726365732F636F72652E786D6C504B0506000000000E000E00800400008D1100000000
310
504B03040A0000080000DCA96F423DEE336E79000000790000001B0000006175746F6465736B2D64657369676E2D7061636B6167652E786D6C3C3F786D6C2076657273696F6E3D22312E302220656E636F64696E673D227574662D3822203F3E3C666F726D6174733E3C666F726D61743E687474703A2F2F736368656D612E
310
6175746F6465736B2E636F6D2F64657369676E2D7061636B6167652F323030393C2F666F726D61743E3C2F666F726D6174733E504B0304140006080800DCA96F42D486FD9CA0000000F4000000130000005B436F6E74656E745F54797065735D2E786D6C7D8EC10E82300C865F65E91D8A1E8C310C0EEA1BF002731658846E
310
D98AC1B77784ABF1D8FE5FBFBF75BBCE937A534CCEB38643598122B6FEE978D0B0485F9C41B54DDD7D022595594E1A469170414C76A4D9A4D207E29CF43ECE46F218070CC6BECC4078ACAA135ACF422C856C0E68EA1BF5669944DDD7BCDE7B1F8E415D77AECB980613C2E4AC91FC167A2B244592486606FC29C8FD7F045B9A
310
EF7053A7E60B504B0304140006080800DCA96F42956D424DEB0000007C01000008000000636F72652E786D6C8D904D6EC3201085AF82665B61837FEAD8C2444EEB9CA01740405C94182C03558F5F9C3852BBEB6A466FDE37337AECF83DDFD0975EBD71B6079A1140DA4AA78C9D7A88E1820F808E9CADCE855F364056CCBA87
310
4D06CEA6D5C56597A4B341DB9054EB94DE45E1BD0E80E42D353D78F9A96791891892C35FB345C8AB9874469F5D8263340A3D8E1895F6998BD12BF0A13E91713855B8786B4B5C35EF07DCB64D89C9501CCE69388EE757966F3067C1CCCFFB72D5226805BC2034994B4CEB8F8276B4EAEAE685D08E10966FF63F505CD43FA168
310
6C288BFDDD07E681D3F4C87DC059BE6591CA3DA854B7DCF80F504B0304140006080800DCA96F4255019EA25F0000007C00000007000000636E782E786D6C4DCB3B0E80201045D1AD90E915ED2CF8AC45050C11660C8261F98AB1B07AC9C97D42D718D865D3E909258CFD00CCE24AC6E326A164D74DC0B4128928FF32603847
310
2BA13128B1252AC747C6BAB984FC68F0B87FE8960A5C09FE86CFB69FBA01504B0304140006080800DCA96F42F4E2DBC967010000020300000C0000006662782F636F72652E786D6C8D525B6E833010BC8AE5DF0A6C03691E328E923639412FE01887A2808D8C8D72FC2E8F284D15451592B16676766707F8F6DAD4A8D7AEAB
310
ACC9318B2946DA285B54A6CC71F0E76885D1567067ADFF558691918DCEF10063C14B67433B43CA1AAF8D07D4D842CFA0EC3AED3152355C72DCA96FDDC858060F15DD256EA5BAC852C72C061AEA04EFBC0303681A329C589C4F574E265CF010AA6266AB02A655E74A3B2C768B3D3DECF659947CACD3285B7EAEA2F57A994674
310
97AC8E401E0EC7774E06B1E0BE6A6EEE94D3D2EB028B8432284E23B6F84AD886659BC5F28DB20DA59C0CE50FA2D016FF1485CAF83499ED4EB20E0B064646E2CFB61091479DECC10F119C0C21C26B4CF83168080442F6F254DFF6B800D46BE5ADCB80296CB853BDAC8386A9148D0F27130B9DC706B0D9D33EC98B3EAF7BC007
310
94A6046BD2C3F514FC309D4F53E7285AEDA2DE5F91B1AE91F5DDDC64F17EDE073D952B5B5BF71F35995725739864F87BC50F504B0304140006080800DCA96F4239431C267E0000009D0000000B0000006662782F636E782E786D6C4DCCD10A83201886E15B91FFDC95CDB2408D55EE3E625948A6C3E9D8E5AF46073BFAE0E1
310
E3E5ED67B3E8ADC3CB7827805C7240DA3DFC64DC2220C519D7805AC983F7F1EF06C88D9B16703048BE049F9E274D7A1E938DBB5AE3D6132B36F443AE14BE15F702D39E12DC30DAE1FA5A91B2530D2D19834CF2EC57DAF708CB2F504B0304140006080800DCA96F42E2DE0CD32C01000014020000310000006662782F363744
310
43443045452D413246322D344334312D393734422D3833363135424539343537372F636F72652E786D6C8D51D96EC32010FC158BA7561536878F24C244CDD12FE80F38405294182C8E2A9F5FA81DA97DCB0B8B66676647BB6C7B1F6FC5B7725E5BD3035C22502823ACD4E6D28318CE70058A2D67CEDAF087060A338CAA0719
310
069C5D9C8DD302096B823221A1C64AB58083F72A8042DCD2A7075E7CA97128871812C35FCB6910D7E1A24A5CA676E271E6834B018A79487E016FBBC3FE808E47F84E3E08ACF73586EBAEDEC1156D71B33BAEEBA6EB58350B398B51CB45AE658AA3CF5AB9674DB298B3A0C7477CE1D41094049C204C21A210379F046F70BD69
310
BA37843708B12AD3FF89E2249F14456D02254BDC59E601C7AC9A1B9C491B4FB74718759FAC0B459EF7E29578051C95083784104A593553D30292675B2F9E3E589716FC723D25365D8CDB9AB32ADF2895DF03A69AEFC97F00504B0304140006080800DCA96F420BDE43CF5601000033030000300000006662782F3637444344
310
3045452D413246322D344334312D393734422D3833363135424539343537372F636E782E786D6CBD93CD6EC32010845F0571ADFC43ECA4518489D4439FA0875E316C121A1B2CC055F3F65D1292E69243A5AA1764CD0E33AB4F986FBFC6817C820FC6D98EB2B2A604AC72DAD87D47E7B82BD6946C05F7CEC53B1B25568ED0D1
310
2453C1F7DECD539634ECE43C445407638F59F410DCEC150494D34D323825070C005BCC28C2D883D6A0C9CD885F3BF0B80A8AFD89C40390D79777E2FA0F5031F02AA5085EA50EC1D3999BEE4C94A84186D0D1A00E30CA52CED16908C752CB284B565EBB1EECF49344D2856BE5EC0D49E51D4D271579A31239F20A878287E891
310
5E36C5D30454C8691A8C9211215767E3C523F86C6C5CB5D96B10BC4777B358ADD718769E091ECD08D9A13CC8089A8A45CD9AA26E0AB67C5BB00D6B37CBE7A79A6DEA9A57C92E78EFDC902F610C783711E56C041BA960BC4AE347F8B28F68E391B5F3A75F804400B9F542E796F1977CD8AA69DB7FE4539DDF37E2F2F817886F
310
504B0304140006080800DCA96F429CBD3E4A59070000931B0000340000006662782F36374443443045452D413246322D344334312D393734422D3833363135424539343537372F6F626A656374732E786D6CED595B6FA33814FE2B887D0E0949DA695794519BB4A368D599D16467B40F9190030EF5D618649B5EF6D7EFF105
310
0234B464A7FB360F0960ECE373BE73F521F8F89451E70173417276E1FADEC475308BF384B0F4C22DE56E74E63A1FC380E7B96C4C731D86327CE1AA61370C529E97851D4AF00E955476466FAEFE72448C19769D9822212E5C11DFE10C79A8947982C5BD972089BC74F7E4F99E99D8269B7254DC7588168863268153186740C5
310
314CF9EDC7893B0E83B17A1F06EADFCE9A0D9A35EF9F35D652B7B9244C48C4E2172C75C8CC06B134F3E7CBEBE9C9F9E8643E9F8DE6A7537F747573B51CF91F6693C5E962717E797D0EEC6DF39C5A99125C609680FE9EDDD00FC6EA4D2DBA45E010D771CE188E3590009516AB4B9060015B35E09BB41F7D2551E3B596B0F13C
310
57EF2D0B8DE1599B4ADFAC6140B4E8822076BB4AE2EADA942FDFFE0D828B2146C90596C0AD901CB46BE1E1E0156E3809C666340CB67B5D10E16448624E107528D972C4412930554D0903B3C09251CEC18194A324D09A33AFDBB6059EF9B6EB1CE2725752AA3CC30DB56345E07E580ACD19F907F33DF74D64802790B6244C9E
310
592EE57381DDF03C18EBC1305097D9D4BE34403A3B8A52A111316F3B822E94EBAF966EF8C7CDF669ADC2C1E1CD0B9E17984B65744A8F9A2F30647B5528D96DFD419A530B401803AA5DB907E51B20FF19A2C79E15D01B274FF3A7B99D2B39626297F30C74E34C9CD104FE268EAFFFD57DE32E18D78BDBDAEBC313DC544175F6
310
F378B665D05859FE1B7086C103187CCE67F6D53A4614ECF996300048198943731882D0BEDB3EB9E10A0227047A588568E883C8C0EE03DC06634B66AF95CABDACD73140D4EE311BA224804D5B24B0D1A3A74F903D3889F76A6A8AD807EFC9BB98EBE572FDC7BAE43B14E35BEBD34BBC238C48C89A87196A61DE92E81E3F3FE6
310
3C01415FE2BD6EE29DD9AD04A0AD3057C0A71508EA61BF736B8318D6A5B90A37C11B3B80102A5737E8DF1211634A11C37959ED5B473765A8B5C7DB9AC10DA706E2D9B463C21C3F10555580D3EC67B41885BC1F73522810DDF09391AC0E9A5E8F74DF579FC122EBF93DB3560C422F43F44F1DB40EE0D0B2EC0A690B442DF076
310
1FCEE39CE63CDA3E4726D2B9504B001B6D6FF9D1220AB1DE284951010FD27E578594D4481B2564B72B05C4D5032CFE582D9AE630F166FE89D3FCEF38E31CA22DF82EE2D6EF3A7B442443298E7628E9DBAEB95B4D5B68923DA439DE51908B3C10F91C21194D129C1E03CD51C4CFDF957A4A732108C302F2D541F09B684C3C08
310
24469B15CB4AAB1DA08988322C113D060145A6075C9D76748D1B43E9F0368FB5F5BEA6B126D1FFC92238825A32671181521472C89B8CFBDE09C49036BA06E50EBE606D156D2D062DA184889FA3474CD23B790CEA867C0FEE311C494A19E5058AC1AC07907DE12B4AA91DDEB728BE57F9238A4BFA5E062230DD4584D2328BE0
310
47189C3C86B8761D985E45A141DCC43E893328CA902CF9904D4E4F262FF631354337043636DA110A613BCA50D1837A2B20EA7AC4A9C1B7D47B94BA2DB32242595EB24186E2CDBADE64C977D5AAC80EE457958A503656842DC130204CD659B58AD960EA3AB0821BE940F51C099415D49CC2DE483C7EED4D9A72EF06DCFAE9FB
310
6E9041E1D7A3BD66449D5730581E5B8581784432BE73C3B5BE8EAEA0FE4E70B24FF555ADD9AC00013115C94B4EAC8ABEAFA0BCB1359A1BDE2229369F4CD6ADAEDF571E743F8231AC81DAA55EB85240679849A42A935B7543BF2108C12D1A667CA572EA31542E9344578D88DE903E75B6CA88D6A619F18A3BCCF20C7E6C4358
310
4CCB046F5022EEA35B49A33551AC5B29BD8C5418BF2AE0974FEB0E3C303240A4AFAAC0C38F9DB57674A1CAA58344E45D996D192210045BA2A546375EC152AB914ACBF5559D29A0EE0203B32A9EFF3A5934DB11BF4E16A9358C9F3B59D07C8BE83EDA34B279ACCCFAA853409D9E1495F73805E8AE434DB54E2226975BF1AD2F
310
451013AB203FB818AB628621D8C7F17F4EDA7D49D06CD7E1FFB8A4EDBF28388E4A2AADC9AA4975A0705D3553D8F5E4DA9F4E978BD1FCC3F5F9687EE69F8F2EAF2F2F471F9693B3E9CDD9EC6CE19FD6686A3F0D833A96E9D405CF26A655C3EAC962004D59915392C0613E71520C215FC2917E40F79C675840EE6CF6BA13DB93
310
1FB0FAC1B43925DA525C717287A03F4C056475C0A88C657BDCF90D3A9312CED9172EF48CBC7BF8B356E93A90782E5CE814481263E16DA1CBA4FA799A38645C9DFA2D31C007B1546544B3A87EAE57296C5AD1BF9E32240B58B95A2D0CA8DB0A687EB51A149A37CB537C94E0153B0E9270BB2D25146B4696FD402D8CDE66AF7E
310
231B25ECDE6EFD04AEFBBA58BEA7E7B41019F4C5E0552330544712F154B7BB156396A5CBE5D731B4D99CD517A7A0650ABA1C4E69C4311873A9EA29B022B00A4BB340124C75F1FBE62BCFE10B4FE6E8A268B3C8B32C67F6E1128E63097C2172D677F0BD27D940D58055575D6CA6137FBAD1DD6CDB608FB648604F9543305055
310
114A848EB18145BEE84CD9BEE55829A1337DB5746CF8842E80B1A017CD5DF375CB01EF51DF5194AF680FAFE47CB5A13DD653C11A38B4A2C37F01504B0304140006080000DCA96F42000000000000000000000000350000006662782F36374443443045452D413246322D344334312D393734422D3833363135424539343537
310
372F76657274696365732E62696E504B0304140006080800DCA96F42F270F1330600000004000000360000006662782F36374443443045452D413246322D344334312D393734422D3833363135424539343537372F747269616E676C65732E62696E636660600000504B0304140006080000DCA96F42000000000000000000
310
000000370000006662782F36374443443045452D413246322D344334312D393734422D3833363135424539343537372F617474726962757465732E62696E504B0304140006080800DCA96F42D5987DFC8F00000041010000360000006662782F36374443443045452D413246322D344334312D393734422D38333631354245
310
39343537372F6469726563746F72792E786D6C858F410EC2201045AF4266AF15DDB800BA74E7C21B903225242D6328188F2FA5C4183471359997F9FF81E89FF3C41E1816475E02DF1F80A11FC8386F25A438EECEC07A250251FC3803E6F58C12560C4AD840E95E91C151A72936F496F35732D860FE635F62C8F2DA16B505C5
310
45B74125BAA2FA9E05D7CC053D063734D5C7665FD55B6B8D15D5E9BFEAFD8490FFA45E504B0304140006080800DCA96F424A0388F5FE000000A00100003B0000006662782F36374443443045452D413246322D344334312D393734422D3833363135424539343537372F7265736F75726365732F636F72652E786D6C8D905D
310
6E83301084AF82F6B5026C082520E388B4E404BD806536C44AB0917FAA1EBF2650A97DEB8BD79AF9463B5A76FA9A1FC9275AA78CEE80660412D4D28C4A4F1D047F4D8F909C38B3C6F85F18245ACCD8C12A0367933561D92569B447EDA3AACD88BB289C430F897CC44F074EDE701699083E12EE9E2D42DEC58419CDA21D39CE
310
9CB7B140B22D595FE0169D0956A263F9E67216821A77468D71A7BA2AB4C0FBEA4C86FE5CA6C55B53A687FAFD98364D5DA6A42F8E97680EC3E595E56B9833AFE69F8ED2A2F038022F088D7099D2EAA3A02D3DB455FD42684B08CB57FC4F282CE33F4341695F167BDD2DE680D358E4697096AFF78AE379CC38D7DBF26F504B01
310
0214000A0000080000DCA96F423DEE336E79000000790000001B00000000000000000000000000000000006175746F6465736B2D64657369676E2D7061636B6167652E786D6C504B01021400140006080800DCA96F42D486FD9CA0000000F40000001300000000000000000000000000B20000005B436F6E74656E745F5479
310
7065735D2E786D6C504B01021400140006080800DCA96F42956D424DEB0000007C010000080000000000000000000000000083010000636F72652E786D6C504B01021400140006080800DCA96F4255019EA25F0000007C000000070000000000000000000000000094020000636E782E786D6C504B01021400140006080800
310
DCA96F42F4E2DBC967010000020300000C00000000000000000000000000180300006662782F636F72652E786D6C504B01021400140006080800DCA96F4239431C267E0000009D0000000B00000000000000000000000000A90400006662782F636E782E786D6C504B01021400140006080800DCA96F42E2DE0CD32C010000
310
140200003100000000000000000000000000500500006662782F36374443443045452D413246322D344334312D393734422D3833363135424539343537372F636F72652E786D6C504B01021400140006080800DCA96F420BDE43CF56010000330300003000000000000000000000000000CB0600006662782F363744434430
310
45452D413246322D344334312D393734422D3833363135424539343537372F636E782E786D6C504B01021400140006080800DCA96F429CBD3E4A59070000931B000034000000000000000000000000006F0800006662782F36374443443045452D413246322D344334312D393734422D3833363135424539343537372F6F62
310
6A656374732E786D6C504B01021400140006080000DCA96F4200000000000000000000000035000000000000000000000000001A1000006662782F36374443443045452D413246322D344334312D393734422D3833363135424539343537372F76657274696365732E62696E504B01021400140006080800DCA96F42F270F1
310
33060000000400000036000000000000000000000000006D1000006662782F36374443443045452D413246322D344334312D393734422D3833363135424539343537372F747269616E676C65732E62696E504B01021400140006080000DCA96F420000000000000000000000003700000000000000000000000000C7100000
310
6662782F36374443443045452D413246322D344334312D393734422D3833363135424539343537372F617474726962757465732E62696E504B01021400140006080800DCA96F42D5987DFC8F0000004101000036000000000000000000000000001C1100006662782F36374443443045452D413246322D344334312D393734
310
422D3833363135424539343537372F6469726563746F72792E786D6C504B01021400140006080800DCA96F424A0388F5FE000000A00100003B00000000000000000000000000FF1100006662782F36374443443045452D413246322D344334312D393734422D3833363135424539343537372F7265736F75726365732F636F
310
72652E786D6C504B0506000000000E000E0080040000561300000000
  0
XRECORD
  5
10
102
{ACAD_REACTORS
330
C
102
}
330
C
100
AcDbXrecord
280
     1
270
     1
271
     1
  0
XRECORD
  5
11
102
{ACAD_REACTORS
330
C
102
}
330
C
100
AcDbXrecord
280
     1
270
     1
271
     1
  0
XRECORD
  5
12
102
{ACAD_REACTORS
330
C
102
}
330
C
100
AcDbXrecord
280
     1
270
     1
271
     1
  0
XRECORD
  5
13
102
{ACAD_REACTORS
330
C
102
}
330
C
100
AcDbXrecord
280
     1
270
     1
271
     1
  0
CELLSTYLEMAP
  5
1F0
102
{ACAD_REACTORS
330
4D
102
}
330
4D
100
AcDbCellStyleMap
 90
        3
300
CELLSTYLE
  1
TABLEFORMAT_BEGIN
 90
        5
170
     1
 91
        0
 92
    32768
 62
   257
 93
        1
300
CONTENTFORMAT
  1
CONTENTFORMAT_BEGIN
 90
        0
 91
        0
 92
      512
 93
        0
300

 40
0.0
140
1.0
 94
        5
 62
     0
340
22
144
0.25
309
CONTENTFORMAT_END
171
     0
 94
        0
309
TABLEFORMAT_END
  1
CELLSTYLE_BEGIN
 90
        1
 91
        1
300
_TITLE
309
CELLSTYLE_END
300
CELLSTYLE
  1
TABLEFORMAT_BEGIN
 90
        5
170
     1
 91
        0
 92
        0
 62
   257
 93
        1
300
CONTENTFORMAT
  1
CONTENTFORMAT_BEGIN
 90
        0
 91
        0
 92
      512
 93
        0
300

 40
0.0
140
1.0
 94
        5
 62
     0
340
22
144
0.18
309
CONTENTFORMAT_END
171
     0
 94
        0
309
TABLEFORMAT_END
  1
CELLSTYLE_BEGIN
 90
        2
 91
        1
300
_HEADER
309
CELLSTYLE_END
300
CELLSTYLE
  1
TABLEFORMAT_BEGIN
 90
        5
170
     1
 91
        0
 92
        0
 62
   257
 93
        1
300
CONTENTFORMAT
  1
CONTENTFORMAT_BEGIN
 90
        0
 91
        0
 92
      512
 93
        0
300

 40
0.0
140
1.0
 94
        2
 62
     0
340
22
144
0.18
309
CONTENTFORMAT_END
171
     0
 94
        0
309
TABLEFORMAT_END
  1
CELLSTYLE_BEGIN
 90
        3
 91
        2
300
_DATA
309
CELLSTYLE_END
  0
XRECORD
  5
200
102
{ACAD_REACTORS
330
4D
102
}
330
4D
100
AcDbXrecord
280
     1
102
ACAD_ROUNDTRIP_PRE2007_TABLESTYLE
 90
      512
 91
        0
  1

 92
      512
 93
        0
  2

 94
      512
 95
        0
  3

  0
XRECORD
  5
1FD
102
{ACAD_REACTORS
330
1FC
102
}
330
1FC
100
AcDbXrecord
280
     1
102
RTVSPropertyOp0
 70
     1
102
RTVSPropertyOp1
 70
     1
102
RTVSPropertyOp2
 70
     1
102
RTVSPropertyOp3
 70
     1
102
RTVSPropertyOp4
 70
     1
102
RTVSPropertyOp5
 70
     1
102
RTVSPropertyOp6
 70
     1
102
RTVSPropertyOp7
 70
     1
102
RTVSPropertyOp8
 70
     1
102
RTVSPropertyOp9
 70
     1
102
RTVSPropertyOp10
 70
     1
102
RTVSPropertyOp11
 70
     1
102
RTVSPropertyOp12
 70
     1
102
RTVSPropertyOp13
 70
     1
102
RTVSPropertyOp14
 70
     1
102
RTVSPropertyOp15
 70
     1
102
RTVSPropertyOp16
 70
     1
102
RTVSPropertyOp17
 70
     1
102
RTVSPropertyOp18
 70
     1
102
RTVSPropertyOp19
 70
     1
102
RTVSPropertyOp20
 70
     1
102
RTVSPropertyOp21
 70
     1
102
RTVSPropertyOp22
 70
     1
102
RTVSPropertyOp23
 70
     1
102
RTVSPropertyOp24
 70
     1
102
RTVSPropertyOp25
 70
     1
102
RTVSPropertyOp26
 70
     1
102
RTVSPropertyOp27
 70
     1
102
RTVSPropertyOp28
 70
     1
102
RTVSPropertyOp29
 70
     1
102
RTVSPropertyOp30
 70
     1
102
RTVSPropertyOp31
 70
     1
102
RTVSPropertyOp32
 70
     1
  0
XRECORD
  5
20E
102
{ACAD_REACTORS
330
20D
102
}
330
20D
100
AcDbXrecord
280
     1
102
RTVSPropertyOp0
 70
     1
102
RTVSPropertyOp1
 70
     1
102
RTVSPropertyOp2
 70
     1
102
RTVSPropertyOp3
 70
     1
102
RTVSPropertyOp4
 70
     1
102
RTVSPropertyOp5
 70
     1
102
RTVSPropertyOp6
 70
     1
102
RTVSPropertyOp7
 70
     1
102
RTVSPropertyOp8
 70
     1
102
RTVSPropertyOp9
 70
     1
102
RTVSPropertyOp10
 70
     1
102
RTVSPropertyOp11
 70
     1
102
RTVSPropertyOp12
 70
     1
102
RTVSPropertyOp13
 70
     1
102
RTVSPropertyOp14
 70
     1
102
RTVSPropertyOp15
 70
     1
102
RTVSPropertyOp16
 70
     1
102
RTVSPropertyOp17
 70
     1
102
RTVSPropertyOp18
 70
     1
102
RTVSPropertyOp19
 70
     1
102
RTVSPropertyOp20
 70
     1
102
RTVSPropertyOp21
 70
     1
102
RTVSPropertyOp22
 70
     1
102
RTVSPropertyOp23
 70
     1
102
RTVSPropertyOp24
 70
     1
102
RTVSPropertyOp25
 70
     1
102
RTVSPropertyOp26
 70
     1
102
RTVSPropertyOp27
 70
     1
102
RTVSPropertyOp28
 70
     1
102
RTVSPropertyOp29
 70
     1
102
RTVSPropertyOp30
 70
     1
102
RTVSPropertyOp31
 70
     1
102
RTVSPropertyOp32
 70
     1
  0
XRECORD
  5
216
102
{ACAD_REACTORS
330
215
102
}
330
215
100
AcDbXrecord
280
     1
102
RTVSPropertyOp0
 70
     1
102
RTVSPropertyOp1
 70
     1
102
RTVSPropertyOp2
 70
     1
102
RTVSPropertyOp3
 70
     1
102
RTVSPropertyOp4
 70
     1
102
RTVSPropertyOp5
 70
     1
102
RTVSPropertyOp6
 70
     1
102
RTVSPropertyOp7
 70
     1
102
RTVSPropertyOp8
 70
     1
102
RTVSPropertyOp9
 70
     1
102
RTVSPropertyOp10
 70
     1
102
RTVSPropertyOp11
 70
     1
102
RTVSPropertyOp12
 70
     1
102
RTVSPropertyOp13
 70
     1
102
RTVSPropertyOp14
 70
     1
102
RTVSPropertyOp15
 70
     1
102
RTVSPropertyOp16
 70
     1
102
RTVSPropertyOp17
 70
     1
102
RTVSPropertyOp18
 70
     1
102
RTVSPropertyOp19
 70
     1
102
RTVSPropertyOp20
 70
     1
102
RTVSPropertyOp21
 70
     1
102
RTVSPropertyOp22
 70
     1
102
RTVSPropertyOp23
 70
     1
102
RTVSPropertyOp24
 70
     1
102
RTVSPropertyOp25
 70
     1
102
RTVSPropertyOp26
 70
     1
102
RTVSPropertyOp27
 70
     1
102
RTVSPropertyOp28
 70
     1
102
RTVSPropertyOp29
 70
     1
102
RTVSPropertyOp30
 70
     1
102
RTVSPropertyOp31
 70
     1
102
RTVSPropertyOp32
 70
     1
  0
XRECORD
  5
21E
102
{ACAD_REACTORS
330
21D
102
}
330
21D
100
AcDbXrecord
280
     1
102
RTVSPropertyOp0
 70
     1
102
RTVSPropertyOp1
 70
     1
102
RTVSPropertyOp2
 70
     1
102
RTVSPropertyOp3
 70
     1
102
RTVSPropertyOp4
 70
     1
102
RTVSPropertyOp5
 70
     1
102
RTVSPropertyOp6
 70
     1
102
RTVSPropertyOp7
 70
     1
102
RTVSPropertyOp8
 70
     1
102
RTVSPropertyOp9
 70
     1
102
RTVSPropertyOp10
 70
     1
102
RTVSPropertyOp11
 70
     1
102
RTVSPropertyOp12
 70
     1
102
RTVSPropertyOp13
 70
     1
102
RTVSPropertyOp14
 70
     1
102
RTVSPropertyOp15
 70
     1
102
RTVSPropertyOp16
 70
     1
102
RTVSPropertyOp17
 70
     1
102
RTVSPropertyOp18
 70
     1
102
RTVSPropertyOp19
 70
     1
102
RTVSPropertyOp20
 70
     1
102
RTVSPropertyOp21
 70
     1
102
RTVSPropertyOp22
 70
     1
102
RTVSPropertyOp23
 70
     1
102
RTVSPropertyOp24
 70
     1
102
RTVSPropertyOp25
 70
     1
102
RTVSPropertyOp26
 70
     1
102
RTVSPropertyOp27
 70
     1
102
RTVSPropertyOp28
 70
     1
102
RTVSPropertyOp29
 70
     1
102
RTVSPropertyOp30
 70
     1
102
RTVSPropertyOp31
 70
     1
102
RTVSPropertyOp32
 70
     1
  0
XRECORD
  5
212
102
{ACAD_REACTORS
330
211
102
}
330
211
100
AcDbXrecord
280
     1
102
RTVSPropertyOp0
 70
     1
102
RTVSPropertyOp1
 70
     1
102
RTVSPropertyOp2
 70
     1
102
RTVSPropertyOp3
 70
     1
102
RTVSPropertyOp4
 70
     1
102
RTVSPropertyOp5
 70
     1
102
RTVSPropertyOp6
 70
     1
102
RTVSPropertyOp7
 70
     1
102
RTVSPropertyOp8
 70
     1
102
RTVSPropertyOp9
 70
     1
102
RTVSPropertyOp10
 70
     1
102
RTVSPropertyOp11
 70
     1
102
RTVSPropertyOp12
 70
     1
102
RTVSPropertyOp13
 70
     1
102
RTVSPropertyOp14
 70
     1
102
RTVSPropertyOp15
 70
     1
102
RTVSPropertyOp16
 70
     1
102
RTVSPropertyOp17
 70
     1
102
RTVSPropertyOp18
 70
     1
102
RTVSPropertyOp19
 70
     1
102
RTVSPropertyOp20
 70
     1
102
RTVSPropertyOp21
 70
     1
102
RTVSPropertyOp22
 70
     1
102
RTVSPropertyOp23
 70
     1
102
RTVSPropertyOp24
 70
     1
102
RTVSPropertyOp25
 70
     1
102
RTVSPropertyOp26
 70
     1
102
RTVSPropertyOp27
 70
     1
102
RTVSPropertyOp28
 70
     1
102
RTVSPropertyOp29
 70
     1
102
RTVSPropertyOp30
 70
     1
102
RTVSPropertyOp31
 70
     1
102
RTVSPropertyOp32
 70
     1
  0
XRECORD
  5
214
102
{ACAD_REACTORS
330
213
102
}
330
213
100
AcDbXrecord
280
     1
102
RTVSPropertyOp0
 70
     1
102
RTVSPropertyOp1
 70
     1
102
RTVSPropertyOp2
 70
     1
102
RTVSPropertyOp3
 70
     1
102
RTVSPropertyOp4
 70
     1
102
RTVSPropertyOp5
 70
     1
102
RTVSPropertyOp6
 70
     1
102
RTVSPropertyOp7
 70
     1
102
RTVSPropertyOp8
 70
     1
102
RTVSPropertyOp9
 70
     1
102
RTVSPropertyOp10
 70
     1
102
RTVSPropertyOp11
 70
     1
102
RTVSPropertyOp12
 70
     1
102
RTVSPropertyOp13
 70
     1
102
RTVSPropertyOp14
 70
     1
102
RTVSPropertyOp15
 70
     1
102
RTVSPropertyOp16
 70
     1
102
RTVSPropertyOp17
 70
     1
102
RTVSPropertyOp18
 70
     1
102
RTVSPropertyOp19
 70
     1
102
RTVSPropertyOp20
 70
     1
102
RTVSPropertyOp21
 70
     1
102
RTVSPropertyOp22
 70
     1
102
RTVSPropertyOp23
 70
     1
102
RTVSPropertyOp24
 70
     1
102
RTVSPropertyOp25
 70
     1
102
RTVSPropertyOp26
 70
     1
102
RTVSPropertyOp27
 70
     1
102
RTVSPropertyOp28
 70
     1
102
RTVSPropertyOp29
 70
     1
102
RTVSPropertyOp30
 70
     1
102
RTVSPropertyOp31
 70
     1
102
RTVSPropertyOp32
 70
     1
  0
XRECORD
  5
22E
102
{ACAD_REACTORS
330
22D
102
}
330
22D
100
AcDbXrecord
280
     1
102
RTVSPropertyOp0
 70
     0
102
RTVSPropertyOp1
 70
     0
102
RTVSPropertyOp2
 70
     0
102
RTVSPropertyOp3
 70
     0
102
RTVSPropertyOp4
 70
     0
102
RTVSPropertyOp5
 70
     0
102
RTVSPropertyOp6
 70
     0
102
RTVSPropertyOp7
 70
     0
102
RTVSPropertyOp8
 70
     0
102
RTVSPropertyOp9
 70
     0
102
RTVSPropertyOp10
 70
     0
102
RTVSPropertyOp11
 70
     0
102
RTVSPropertyOp12
 70
     0
102
RTVSPropertyOp13
 70
     0
102
RTVSPropertyOp14
 70
     2
102
RTVSPropertyOp15
 70
     0
102
RTVSPropertyOp16
 70
     0
102
RTVSPropertyOp17
 70
     0
102
RTVSPropertyOp18
 70
     0
102
RTVSPropertyOp19
 70
     0
102
RTVSPropertyOp20
 70
     0
102
RTVSPropertyOp21
 70
     0
102
RTVSPropertyOp22
 70
     0
102
RTVSPropertyOp23
 70
     0
102
RTVSPropertyOp24
 70
     0
102
RTVSPropertyOp25
 70
     0
102
RTVSPropertyOp26
 70
     0
102
RTVSPropertyOp27
 70
     0
102
RTVSPropertyOp28
 70
     0
102
RTVSPropertyOp29
 70
     0
102
RTVSPropertyOp30
 70
     0
102
RTVSPropertyOp31
 70
     0
102
RTVSPropertyOp32
 70
     0
  0
XRECORD
  5
21C
102
{ACAD_REACTORS
330
21B
102
}
330
21B
100
AcDbXrecord
280
     1
102
RTVSPropertyOp0
 70
     1
102
RTVSPropertyOp1
 70
     1
102
RTVSPropertyOp2
 70
     1
102
RTVSPropertyOp3
 70
     1
102
RTVSPropertyOp4
 70
     1
102
RTVSPropertyOp5
 70
     1
102
RTVSPropertyOp6
 70
     1
102
RTVSPropertyOp7
 70
     1
102
RTVSPropertyOp8
 70
     1
102
RTVSPropertyOp9
 70
     1
102
RTVSPropertyOp10
 70
     1
102
RTVSPropertyOp11
 70
     1
102
RTVSPropertyOp12
 70
     1
102
RTVSPropertyOp13
 70
     1
102
RTVSPropertyOp14
 70
     1
102
RTVSPropertyOp15
 70
     1
102
RTVSPropertyOp16
 70
     1
102
RTVSPropertyOp17
 70
     1
102
RTVSPropertyOp18
 70
     1
102
RTVSPropertyOp19
 70
     1
102
RTVSPropertyOp20
 70
     1
102
RTVSPropertyOp21
 70
     1
102
RTVSPropertyOp22
 70
     1
102
RTVSPropertyOp23
 70
     1
102
RTVSPropertyOp24
 70
     1
102
RTVSPropertyOp25
 70
     1
102
RTVSPropertyOp26
 70
     1
102
RTVSPropertyOp27
 70
     1
102
RTVSPropertyOp28
 70
     1
102
RTVSPropertyOp29
 70
     1
102
RTVSPropertyOp30
 70
     1
102
RTVSPropertyOp31
 70
     1
102
RTVSPropertyOp32
 70
     1
  0
XRECORD
  5
206
102
{ACAD_REACTORS
330
205
102
}
330
205
100
AcDbXrecord
280
     1
102
RTVSPropertyOp0
 70
     1
102
RTVSPropertyOp1
 70
     1
102
RTVSPropertyOp2
 70
     1
102
RTVSPropertyOp3
 70
     1
102
RTVSPropertyOp4
 70
     1
102
RTVSPropertyOp5
 70
     1
102
RTVSPropertyOp6
 70
     1
102
RTVSPropertyOp7
 70
     1
102
RTVSPropertyOp8
 70
     1
102
RTVSPropertyOp9
 70
     1
102
RTVSPropertyOp10
 70
     1
102
RTVSPropertyOp11
 70
     1
102
RTVSPropertyOp12
 70
     1
102
RTVSPropertyOp13
 70
     1
102
RTVSPropertyOp14
 70
     1
102
RTVSPropertyOp15
 70
     1
102
RTVSPropertyOp16
 70
     1
102
RTVSPropertyOp17
 70
     1
102
RTVSPropertyOp18
 70
     1
102
RTVSPropertyOp19
 70
     1
102
RTVSPropertyOp20
 70
     1
102
RTVSPropertyOp21
 70
     1
102
RTVSPropertyOp22
 70
     1
102
RTVSPropertyOp23
 70
     1
102
RTVSPropertyOp24
 70
     1
102
RTVSPropertyOp25
 70
     1
102
RTVSPropertyOp26
 70
     1
102
RTVSPropertyOp27
 70
     1
102
RTVSPropertyOp28
 70
     1
102
RTVSPropertyOp29
 70
     1
102
RTVSPropertyOp30
 70
     1
102
RTVSPropertyOp31
 70
     1
102
RTVSPropertyOp32
 70
     1
  0
XRECORD
  5
208
102
{ACAD_REACTORS
330
207
102
}
330
207
100
AcDbXrecord
280
     1
102
RTVSPropertyOp0
 70
     1
102
RTVSPropertyOp1
 70
     1
102
RTVSPropertyOp2
 70
     1
102
RTVSPropertyOp3
 70
     1
102
RTVSPropertyOp4
 70
     1
102
RTVSPropertyOp5
 70
     1
102
RTVSPropertyOp6
 70
     1
102
RTVSPropertyOp7
 70
     1
102
RTVSPropertyOp8
 70
     1
102
RTVSPropertyOp9
 70
     1
102
RTVSPropertyOp10
 70
     1
102
RTVSPropertyOp11
 70
     1
102
RTVSPropertyOp12
 70
     1
102
RTVSPropertyOp13
 70
     1
102
RTVSPropertyOp14
 70
     1
102
RTVSPropertyOp15
 70
     1
102
RTVSPropertyOp16
 70
     1
102
RTVSPropertyOp17
 70
     1
102
RTVSPropertyOp18
 70
     1
102
RTVSPropertyOp19
 70
     1
102
RTVSPropertyOp20
 70
     1
102
RTVSPropertyOp21
 70
     1
102
RTVSPropertyOp22
 70
     1
102
RTVSPropertyOp23
 70
     1
102
RTVSPropertyOp24
 70
     1
102
RTVSPropertyOp25
 70
     1
102
RTVSPropertyOp26
 70
     1
102
RTVSPropertyOp27
 70
     1
102
RTVSPropertyOp28
 70
     1
102
RTVSPropertyOp29
 70
     1
102
RTVSPropertyOp30
 70
     1
102
RTVSPropertyOp31
 70
     1
102
RTVSPropertyOp32
 70
     1
  0
XRECORD
  5
20A
102
{ACAD_REACTORS
330
209
102
}
330
209
100
AcDbXrecord
280
     1
102
RTVSPropertyOp0
 70
     1
102
RTVSPropertyOp1
 70
     1
102
RTVSPropertyOp2
 70
     1
102
RTVSPropertyOp3
 70
     1
102
RTVSPropertyOp4
 70
     1
102
RTVSPropertyOp5
 70
     1
102
RTVSPropertyOp6
 70
     1
102
RTVSPropertyOp7
 70
     1
102
RTVSPropertyOp8
 70
     1
102
RTVSPropertyOp9
 70
     1
102
RTVSPropertyOp10
 70
     1
102
RTVSPropertyOp11
 70
     1
102
RTVSPropertyOp12
 70
     1
102
RTVSPropertyOp13
 70
     1
102
RTVSPropertyOp14
 70
     1
102
RTVSPropertyOp15
 70
     1
102
RTVSPropertyOp16
 70
     1
102
RTVSPropertyOp17
 70
     1
102
RTVSPropertyOp18
 70
     1
102
RTVSPropertyOp19
 70
     1
102
RTVSPropertyOp20
 70
     1
102
RTVSPropertyOp21
 70
     1
102
RTVSPropertyOp22
 70
     1
102
RTVSPropertyOp23
 70
     1
102
RTVSPropertyOp24
 70
     1
102
RTVSPropertyOp25
 70
     1
102
RTVSPropertyOp26
 70
     1
102
RTVSPropertyOp27
 70
     1
102
RTVSPropertyOp28
 70
     1
102
RTVSPropertyOp29
 70
     1
102
RTVSPropertyOp30
 70
     1
102
RTVSPropertyOp31
 70
     1
102
RTVSPropertyOp32
 70
     1
  0
XRECORD
  5
20C
102
{ACAD_REACTORS
330
20B
102
}
330
20B
100
AcDbXrecord
280
     1
102
RTVSPropertyOp0
 70
     1
102
RTVSPropertyOp1
 70
     1
102
RTVSPropertyOp2
 70
     1
102
RTVSPropertyOp3
 70
     1
102
RTVSPropertyOp4
 70
     1
102
RTVSPropertyOp5
 70
     1
102
RTVSPropertyOp6
 70
     1
102
RTVSPropertyOp7
 70
     1
102
RTVSPropertyOp8
 70
     1
102
RTVSPropertyOp9
 70
     1
102
RTVSPropertyOp10
 70
     1
102
RTVSPropertyOp11
 70
     1
102
RTVSPropertyOp12
 70
     1
102
RTVSPropertyOp13
 70
     1
102
RTVSPropertyOp14
 70
     1
102
RTVSPropertyOp15
 70
     1
102
RTVSPropertyOp16
 70
     1
102
RTVSPropertyOp17
 70
     1
102
RTVSPropertyOp18
 70
     1
102
RTVSPropertyOp19
 70
     1
102
RTVSPropertyOp20
 70
     1
102
RTVSPropertyOp21
 70
     1
102
RTVSPropertyOp22
 70
     1
102
RTVSPropertyOp23
 70
     1
102
RTVSPropertyOp24
 70
     1
102
RTVSPropertyOp25
 70
     1
102
RTVSPropertyOp26
 70
     1
102
RTVSPropertyOp27
 70
     1
102
RTVSPropertyOp28
 70
     1
102
RTVSPropertyOp29
 70
     1
102
RTVSPropertyOp30
 70
     1
102
RTVSPropertyOp31
 70
     1
102
RTVSPropertyOp32
 70
     1
  0
XRECORD
  5
210
102
{ACAD_REACTORS
330
20F
102
}
330
20F
100
AcDbXrecord
280
     1
102
RTVSPropertyOp0
 70
     1
102
RTVSPropertyOp1
 70
     1
102
RTVSPropertyOp2
 70
     1
102
RTVSPropertyOp3
 70
     1
102
RTVSPropertyOp4
 70
     1
102
RTVSPropertyOp5
 70
     1
102
RTVSPropertyOp6
 70
     1
102
RTVSPropertyOp7
 70
     1
102
RTVSPropertyOp8
 70
     1
102
RTVSPropertyOp9
 70
     1
102
RTVSPropertyOp10
 70
     1
102
RTVSPropertyOp11
 70
     1
102
RTVSPropertyOp12
 70
     1
102
RTVSPropertyOp13
 70
     1
102
RTVSPropertyOp14
 70
     1
102
RTVSPropertyOp15
 70
     1
102
RTVSPropertyOp16
 70
     1
102
RTVSPropertyOp17
 70
     1
102
RTVSPropertyOp18
 70
     1
102
RTVSPropertyOp19
 70
     1
102
RTVSPropertyOp20
 70
     1
102
RTVSPropertyOp21
 70
     1
102
RTVSPropertyOp22
 70
     1
102
RTVSPropertyOp23
 70
     1
102
RTVSPropertyOp24
 70
     1
102
RTVSPropertyOp25
 70
     1
102
RTVSPropertyOp26
 70
     1
102
RTVSPropertyOp27
 70
     1
102
RTVSPropertyOp28
 70
     1
102
RTVSPropertyOp29
 70
     1
102
RTVSPropertyOp30
 70
     1
102
RTVSPropertyOp31
 70
     1
102
RTVSPropertyOp32
 70
     1
  0
XRECORD
  5
22A
102
{ACAD_REACTORS
330
229
102
}
330
229
100
AcDbXrecord
280
     1
102
RTVSPropertyOp0
 70
     0
102
RTVSPropertyOp1
 70
     0
102
RTVSPropertyOp2
 70
     0
102
RTVSPropertyOp3
 70
     0
102
RTVSPropertyOp4
 70
     0
102
RTVSPropertyOp5
 70
     0
102
RTVSPropertyOp6
 70
     0
102
RTVSPropertyOp7
 70
     0
102
RTVSPropertyOp8
 70
     0
102
RTVSPropertyOp9
 70
     0
102
RTVSPropertyOp10
 70
     0
102
RTVSPropertyOp11
 70
     0
102
RTVSPropertyOp12
 70
     0
102
RTVSPropertyOp13
 70
     0
102
RTVSPropertyOp14
 70
     2
102
RTVSPropertyOp15
 70
     0
102
RTVSPropertyOp16
 70
     0
102
RTVSPropertyOp17
 70
     0
102
RTVSPropertyOp18
 70
     0
102
RTVSPropertyOp19
 70
     0
102
RTVSPropertyOp20
 70
     0
102
RTVSPropertyOp21
 70
     0
102
RTVSPropertyOp22
 70
     0
102
RTVSPropertyOp23
 70
     0
102
RTVSPropertyOp24
 70
     0
102
RTVSPropertyOp25
 70
     0
102
RTVSPropertyOp26
 70
     0
102
RTVSPropertyOp27
 70
     0
102
RTVSPropertyOp28
 70
     0
102
RTVSPropertyOp29
 70
     0
102
RTVSPropertyOp30
 70
     0
102
RTVSPropertyOp31
 70
     0
102
RTVSPropertyOp32
 70
     0
  0
XRECORD
  5
21A
102
{ACAD_REACTORS
330
219
102
}
330
219
100
AcDbXrecord
280
     1
102
RTVSPropertyOp0
 70
     1
102
RTVSPropertyOp1
 70
     1
102
RTVSPropertyOp2
 70
     1
102
RTVSPropertyOp3
 70
     1
102
RTVSPropertyOp4
 70
     1
102
RTVSPropertyOp5
 70
     1
102
RTVSPropertyOp6
 70
     1
102
RTVSPropertyOp7
 70
     1
102
RTVSPropertyOp8
 70
     1
102
RTVSPropertyOp9
 70
     1
102
RTVSPropertyOp10
 70
     1
102
RTVSPropertyOp11
 70
     1
102
RTVSPropertyOp12
 70
     1
102
RTVSPropertyOp13
 70
     1
102
RTVSPropertyOp14
 70
     1
102
RTVSPropertyOp15
 70
     1
102
RTVSPropertyOp16
 70
     1
102
RTVSPropertyOp17
 70
     1
102
RTVSPropertyOp18
 70
     1
102
RTVSPropertyOp19
 70
     1
102
RTVSPropertyOp20
 70
     1
102
RTVSPropertyOp21
 70
     1
102
RTVSPropertyOp22
 70
     1
102
RTVSPropertyOp23
 70
     1
102
RTVSPropertyOp24
 70
     1
102
RTVSPropertyOp25
 70
     1
102
RTVSPropertyOp26
 70
     1
102
RTVSPropertyOp27
 70
     1
102
RTVSPropertyOp28
 70
     1
102
RTVSPropertyOp29
 70
     1
102
RTVSPropertyOp30
 70
     1
102
RTVSPropertyOp31
 70
     1
102
RTVSPropertyOp32
 70
     1
  0
XRECORD
  5
22C
102
{ACAD_REACTORS
330
22B
102
}
330
22B
100
AcDbXrecord
280
     1
102
RTVSPropertyOp0
 70
     0
102
RTVSPropertyOp1
 70
     0
102
RTVSPropertyOp2
 70
     0
102
RTVSPropertyOp3
 70
     0
102
RTVSPropertyOp4
 70
     0
102
RTVSPropertyOp5
 70
     0
102
RTVSPropertyOp6
 70
     0
102
RTVSPropertyOp7
 70
     0
102
RTVSPropertyOp8
 70
     0
102
RTVSPropertyOp9
 70
     0
102
RTVSPropertyOp10
 70
     0
102
RTVSPropertyOp11
 70
     0
102
RTVSPropertyOp12
 70
     0
102
RTVSPropertyOp13
 70
     0
102
RTVSPropertyOp14
 70
     2
102
RTVSPropertyOp15
 70
     0
102
RTVSPropertyOp16
 70
     0
102
RTVSPropertyOp17
 70
     0
102
RTVSPropertyOp18
 70
     0
102
RTVSPropertyOp19
 70
     0
102
RTVSPropertyOp20
 70
     0
102
RTVSPropertyOp21
 70
     0
102
RTVSPropertyOp22
 70
     0
102
RTVSPropertyOp23
 70
     0
102
RTVSPropertyOp24
 70
     0
102
RTVSPropertyOp25
 70
     0
102
RTVSPropertyOp26
 70
     0
102
RTVSPropertyOp27
 70
     0
102
RTVSPropertyOp28
 70
     0
102
RTVSPropertyOp29
 70
     0
102
RTVSPropertyOp30
 70
     0
102
RTVSPropertyOp31
 70
     0
102
RTVSPropertyOp32
 70
     0
  0
XRECORD
  5
202
102
{ACAD_REACTORS
330
201
102
}
330
201
100
AcDbXrecord
280
     1
102
RTVSPropertyOp0
 70
     1
102
RTVSPropertyOp1
 70
     1
102
RTVSPropertyOp2
 70
     1
102
RTVSPropertyOp3
 70
     1
102
RTVSPropertyOp4
 70
     1
102
RTVSPropertyOp5
 70
     1
102
RTVSPropertyOp6
 70
     1
102
RTVSPropertyOp7
 70
     1
102
RTVSPropertyOp8
 70
     1
102
RTVSPropertyOp9
 70
     1
102
RTVSPropertyOp10
 70
     1
102
RTVSPropertyOp11
 70
     1
102
RTVSPropertyOp12
 70
     1
102
RTVSPropertyOp13
 70
     1
102
RTVSPropertyOp14
 70
     1
102
RTVSPropertyOp15
 70
     1
102
RTVSPropertyOp16
 70
     1
102
RTVSPropertyOp17
 70
     1
102
RTVSPropertyOp18
 70
     1
102
RTVSPropertyOp19
 70
     1
102
RTVSPropertyOp20
 70
     1
102
RTVSPropertyOp21
 70
     1
102
RTVSPropertyOp22
 70
     1
102
RTVSPropertyOp23
 70
     1
102
RTVSPropertyOp24
 70
     1
102
RTVSPropertyOp25
 70
     1
102
RTVSPropertyOp26
 70
     1
102
RTVSPropertyOp27
 70
     1
102
RTVSPropertyOp28
 70
     1
102
RTVSPropertyOp29
 70
     1
102
RTVSPropertyOp30
 70
     1
102
RTVSPropertyOp31
 70
     1
102
RTVSPropertyOp32
 70
     1
  0
XRECORD
  5
228
102
{ACAD_REACTORS
330
227
102
}
330
227
100
AcDbXrecord
280
     1
102
RTVSPropertyOp0
 70
     1
102
RTVSPropertyOp1
 70
     1
102
RTVSPropertyOp2
 70
     1
102
RTVSPropertyOp3
 70
     1
102
RTVSPropertyOp4
 70
     1
102
RTVSPropertyOp5
 70
     1
102
RTVSPropertyOp6
 70
     1
102
RTVSPropertyOp7
 70
     1
102
RTVSPropertyOp8
 70
     1
102
RTVSPropertyOp9
 70
     1
102
RTVSPropertyOp10
 70
     1
102
RTVSPropertyOp11
 70
     1
102
RTVSPropertyOp12
 70
     1
102
RTVSPropertyOp13
 70
     1
102
RTVSPropertyOp14
 70
     1
102
RTVSPropertyOp15
 70
     1
102
RTVSPropertyOp16
 70
     1
102
RTVSPropertyOp17
 70
     1
102
RTVSPropertyOp18
 70
     1
102
RTVSPropertyOp19
 70
     1
102
RTVSPropertyOp20
 70
     1
102
RTVSPropertyOp21
 70
     1
102
RTVSPropertyOp22
 70
     1
102
RTVSPropertyOp23
 70
     1
102
RTVSPropertyOp24
 70
     1
102
RTVSPropertyOp25
 70
     1
102
RTVSPropertyOp26
 70
     1
102
RTVSPropertyOp27
 70
     1
102
RTVSPropertyOp28
 70
     1
102
RTVSPropertyOp29
 70
     1
102
RTVSPropertyOp30
 70
     1
102
RTVSPropertyOp31
 70
     1
102
RTVSPropertyOp32
 70
     1
  0
XRECORD
  5
226
102
{ACAD_REACTORS
330
225
102
}
330
225
100
AcDbXrecord
280
     1
102
RTVSPropertyOp0
 70
     1
102
RTVSPropertyOp1
 70
     1
102
RTVSPropertyOp2
 70
     1
102
RTVSPropertyOp3
 70
     1
102
RTVSPropertyOp4
 70
     1
102
RTVSPropertyOp5
 70
     1
102
RTVSPropertyOp6
 70
     1
102
RTVSPropertyOp7
 70
     1
102
RTVSPropertyOp8
 70
     1
102
RTVSPropertyOp9
 70
     1
102
RTVSPropertyOp10
 70
     1
102
RTVSPropertyOp11
 70
     1
102
RTVSPropertyOp12
 70
     1
102
RTVSPropertyOp13
 70
     1
102
RTVSPropertyOp14
 70
     1
102
RTVSPropertyOp15
 70
     1
102
RTVSPropertyOp16
 70
     1
102
RTVSPropertyOp17
 70
     1
102
RTVSPropertyOp18
 70
     1
102
RTVSPropertyOp19
 70
     1
102
RTVSPropertyOp20
 70
     1
102
RTVSPropertyOp21
 70
     1
102
RTVSPropertyOp22
 70
     1
102
RTVSPropertyOp23
 70
     1
102
RTVSPropertyOp24
 70
     1
102
RTVSPropertyOp25
 70
     1
102
RTVSPropertyOp26
 70
     1
102
RTVSPropertyOp27
 70
     1
102
RTVSPropertyOp28
 70
     1
102
RTVSPropertyOp29
 70
     1
102
RTVSPropertyOp30
 70
     1
102
RTVSPropertyOp31
 70
     1
102
RTVSPropertyOp32
 70
     1
  0
XRECORD
  5
220
102
{ACAD_REACTORS
330
21F
102
}
330
21F
100
AcDbXrecord
280
     1
102
RTVSPropertyOp0
 70
     1
102
RTVSPropertyOp1
 70
     1
102
RTVSPropertyOp2
 70
     1
102
RTVSPropertyOp3
 70
     1
102
RTVSPropertyOp4
 70
     1
102
RTVSPropertyOp5
 70
     1
102
RTVSPropertyOp6
 70
     1
102
RTVSPropertyOp7
 70
     1
102
RTVSPropertyOp8
 70
     1
102
RTVSPropertyOp9
 70
     1
102
RTVSPropertyOp10
 70
     1
102
RTVSPropertyOp11
 70
     1
102
RTVSPropertyOp12
 70
     1
102
RTVSPropertyOp13
 70
     1
102
RTVSPropertyOp14
 70
     1
102
RTVSPropertyOp15
 70
     1
102
RTVSPropertyOp16
 70
     1
102
RTVSPropertyOp17
 70
     1
102
RTVSPropertyOp18
 70
     1
102
RTVSPropertyOp19
 70
     1
102
RTVSPropertyOp20
 70
     1
102
RTVSPropertyOp21
 70
     1
102
RTVSPropertyOp22
 70
     1
102
RTVSPropertyOp23
 70
     1
102
RTVSPropertyOp24
 70
     1
102
RTVSPropertyOp25
 70
     1
102
RTVSPropertyOp26
 70
     1
102
RTVSPropertyOp27
 70
     1
102
RTVSPropertyOp28
 70
     1
102
RTVSPropertyOp29
 70
     1
102
RTVSPropertyOp30
 70
     1
102
RTVSPropertyOp31
 70
     1
102
RTVSPropertyOp32
 70
     1
  0
XRECORD
  5
222
102
{ACAD_REACTORS
330
221
102
}
330
221
100
AcDbXrecord
280
     1
102
RTVSPropertyOp0
 70
     1
102
RTVSPropertyOp1
 70
     1
102
RTVSPropertyOp2
 70
     1
102
RTVSPropertyOp3
 70
     1
102
RTVSPropertyOp4
 70
     1
102
RTVSPropertyOp5
 70
     1
102
RTVSPropertyOp6
 70
     1
102
RTVSPropertyOp7
 70
     1
102
RTVSPropertyOp8
 70
     1
102
RTVSPropertyOp9
 70
     1
102
RTVSPropertyOp10
 70
     1
102
RTVSPropertyOp11
 70
     1
102
RTVSPropertyOp12
 70
     1
102
RTVSPropertyOp13
 70
     1
102
RTVSPropertyOp14
 70
     1
102
RTVSPropertyOp15
 70
     1
102
RTVSPropertyOp16
 70
     1
102
RTVSPropertyOp17
 70
     1
102
RTVSPropertyOp18
 70
     1
102
RTVSPropertyOp19
 70
     1
102
RTVSPropertyOp20
 70
     1
102
RTVSPropertyOp21
 70
     1
102
RTVSPropertyOp22
 70
     1
102
RTVSPropertyOp23
 70
     1
102
RTVSPropertyOp24
 70
     1
102
RTVSPropertyOp25
 70
     1
102
RTVSPropertyOp26
 70
     1
102
RTVSPropertyOp27
 70
     1
102
RTVSPropertyOp28
 70
     1
102
RTVSPropertyOp29
 70
     1
102
RTVSPropertyOp30
 70
     1
102
RTVSPropertyOp31
 70
     1
102
RTVSPropertyOp32
 70
     1
  0
XRECORD
  5
218
102
{ACAD_REACTORS
330
217
102
}
330
217
100
AcDbXrecord
280
     1
102
RTVSPropertyOp0
 70
     1
102
RTVSPropertyOp1
 70
     1
102
RTVSPropertyOp2
 70
     1
102
RTVSPropertyOp3
 70
     1
102
RTVSPropertyOp4
 70
     1
102
RTVSPropertyOp5
 70
     1
102
RTVSPropertyOp6
 70
     1
102
RTVSPropertyOp7
 70
     1
102
RTVSPropertyOp8
 70
     1
102
RTVSPropertyOp9
 70
     1
102
RTVSPropertyOp10
 70
     1
102
RTVSPropertyOp11
 70
     1
102
RTVSPropertyOp12
 70
     1
102
RTVSPropertyOp13
 70
     1
102
RTVSPropertyOp14
 70
     1
102
RTVSPropertyOp15
 70
     1
102
RTVSPropertyOp16
 70
     1
102
RTVSPropertyOp17
 70
     1
102
RTVSPropertyOp18
 70
     1
102
RTVSPropertyOp19
 70
     1
102
RTVSPropertyOp20
 70
     1
102
RTVSPropertyOp21
 70
     1
102
RTVSPropertyOp22
 70
     1
102
RTVSPropertyOp23
 70
     1
102
RTVSPropertyOp24
 70
     1
102
RTVSPropertyOp25
 70
     1
102
RTVSPropertyOp26
 70
     1
102
RTVSPropertyOp27
 70
     1
102
RTVSPropertyOp28
 70
     1
102
RTVSPropertyOp29
 70
     1
102
RTVSPropertyOp30
 70
     1
102
RTVSPropertyOp31
 70
     1
102
RTVSPropertyOp32
 70
     1
  0
XRECORD
  5
204
102
{ACAD_REACTORS
330
203
102
}
330
203
100
AcDbXrecord
280
     1
102
RTVSPropertyOp0
 70
     1
102
RTVSPropertyOp1
 70
     1
102
RTVSPropertyOp2
 70
     1
102
RTVSPropertyOp3
 70
     1
102
RTVSPropertyOp4
 70
     1
102
RTVSPropertyOp5
 70
     1
102
RTVSPropertyOp6
 70
     1
102
RTVSPropertyOp7
 70
     1
102
RTVSPropertyOp8
 70
     1
102
RTVSPropertyOp9
 70
     1
102
RTVSPropertyOp10
 70
     1
102
RTVSPropertyOp11
 70
     1
102
RTVSPropertyOp12
 70
     1
102
RTVSPropertyOp13
 70
     1
102
RTVSPropertyOp14
 70
     1
102
RTVSPropertyOp15
 70
     1
102
RTVSPropertyOp16
 70
     1
102
RTVSPropertyOp17
 70
     1
102
RTVSPropertyOp18
 70
     1
102
RTVSPropertyOp19
 70
     1
102
RTVSPropertyOp20
 70
     1
102
RTVSPropertyOp21
 70
     1
102
RTVSPropertyOp22
 70
     1
102
RTVSPropertyOp23
 70
     1
102
RTVSPropertyOp24
 70
     1
102
RTVSPropertyOp25
 70
     1
102
RTVSPropertyOp26
 70
     1
102
RTVSPropertyOp27
 70
     1
102
RTVSPropertyOp28
 70
     1
102
RTVSPropertyOp29
 70
     1
102
RTVSPropertyOp30
 70
     1
102
RTVSPropertyOp31
 70
     1
102
RTVSPropertyOp32
 70
     1
  0
XRECORD
  5
224
102
{ACAD_REACTORS
330
223
102
}
330
223
100
AcDbXrecord
280
     1
102
RTVSPropertyOp0
 70
     1
102
RTVSPropertyOp1
 70
     1
102
RTVSPropertyOp2
 70
     1
102
RTVSPropertyOp3
 70
     1
102
RTVSPropertyOp4
 70
     1
102
RTVSPropertyOp5
 70
     1
102
RTVSPropertyOp6
 70
     1
102
RTVSPropertyOp7
 70
     1
102
RTVSPropertyOp8
 70
     1
102
RTVSPropertyOp9
 70
     1
102
RTVSPropertyOp10
 70
     1
102
RTVSPropertyOp11
 70
     1
102
RTVSPropertyOp12
 70
     1
102
RTVSPropertyOp13
 70
     1
102
RTVSPropertyOp14
 70
     1
102
RTVSPropertyOp15
 70
     1
102
RTVSPropertyOp16
 70
     1
102
RTVSPropertyOp17
 70
     1
102
RTVSPropertyOp18
 70
     1
102
RTVSPropertyOp19
 70
     1
102
RTVSPropertyOp20
 70
     1
102
RTVSPropertyOp21
 70
     1
102
RTVSPropertyOp22
 70
     1
102
RTVSPropertyOp23
 70
     1
102
RTVSPropertyOp24
 70
     1
102
RTVSPropertyOp25
 70
     1
102
RTVSPropertyOp26
 70
     1
102
RTVSPropertyOp27
 70
     1
102
RTVSPropertyOp28
 70
     1
102
RTVSPropertyOp29
 70
     1
102
RTVSPropertyOp30
 70
     1
102
RTVSPropertyOp31
 70
     1
102
RTVSPropertyOp32
 70
     1
  0
ENDSEC
  0
EOF
