  0
SECTION
  2
HEADER
  9
$ACADVER
  1
AC1015
  9
$ACADMAINTVER
 70
    18
  9
$DWGCODEPAGE
  3
ANSI_1252
  9
$INSBASE
 10
0.0
 20
0.0
 30
0.0
  9
$EXTMIN
 10
-250.0426916145284
 20
-20.42956349536507
 30
-0.0015258207003583
  9
$EXTMAX
 10
250.0608384672796
 20
1118.018236533526
 30
0.0000000349246037
  9
$LIMMIN
 10
0.0
 20
0.0
  9
$LIMMAX
 10
1189.0
 20
840.9999999999998
  9
$ORTHOMODE
 70
     0
  9
$REGENMODE
 70
     1
  9
$FILLMODE
 70
     1
  9
$QTEXTMODE
 70
     0
  9
$MIRRTEXT
 70
     0
  9
$LTSCALE
 40
1.0
  9
$ATTMODE
 70
     1
  9
$TEXTSIZE
 40
0.2
  9
$TRACEWID
 40
0.05
  9
$TEXTSTYLE
  7
STANDARD
  9
$CLAYER
  8
0
  9
$CELTYPE
  6
ByLayer
  9
$CECOLOR
 62
   256
  9
$CELTSCALE
 40
1.0
  9
$DISPSILH
 70
     0
  9
$DIMSCALE
 40
1.0
  9
$DIMASZ
 40
1800.0
  9
$DIMEXO
 40
0.0625
  9
$DIMDLI
 40
0.38
  9
$DIMRND
 40
0.0
  9
$DIMDLE
 40
0.0
  9
$DIMEXE
 40
0.18
  9
$DIMTP
 40
0.0
  9
$DIMTM
 40
0.0
  9
$DIMTXT
 40
349.9999940395354
  9
$DIMCEN
 40
0.09
  9
$DIMTSZ
 40
0.0
  9
$DIMTOL
 70
     0
  9
$DIMLIM
 70
     0
  9
$DIMTIH
 70
     1
  9
$DIMTOH
 70
     1
  9
$DIMSE1
 70
     0
  9
$DIMSE2
 70
     0
  9
$DIMTAD
 70
     0
  9
$DIMZIN
 70
     0
  9
$DIMBLK
  1

  9
$DIMASO
 70
     1
  9
$DIMSHO
 70
     1
  9
$DIMPOST
  1

  9
$DIMAPOST
  1

  9
$DIMALT
 70
     0
  9
$DIMALTD
 70
     2
  9
$DIMALTF
 40
25.4
  9
$DIMLFAC
 40
1.0
  9
$DIMTOFL
 70
     0
  9
$DIMTVP
 40
0.0
  9
$DIMTIX
 70
     0
  9
$DIMSOXD
 70
     0
  9
$DIMSAH
 70
     0
  9
$DIMBLK1
  1

  9
$DIMBLK2
  1

  9
$DIMSTYLE
  2
STANDARD
  9
$DIMCLRD
 70
     0
  9
$DIMCLRE
 70
     0
  9
$DIMCLRT
 70
     0
  9
$DIMTFAC
 40
1.0
  9
$DIMGAP
 40
0.09
  9
$DIMJUST
 70
     0
  9
$DIMSD1
 70
     0
  9
$DIMSD2
 70
     0
  9
$DIMTOLJ
 70
     1
  9
$DIMTZIN
 70
     0
  9
$DIMALTZ
 70
     0
  9
$DIMALTTZ
 70
     0
  9
$DIMUPT
 70
     0
  9
$DIMDEC
 70
     4
  9
$DIMTDEC
 70
     4
  9
$DIMALTU
 70
     2
  9
$DIMALTTD
 70
     2
  9
$DIMTXSTY
  7
STANDARD
  9
$DIMAUNIT
 70
     0
  9
$DIMADEC
 70
     0
  9
$DIMALTRND
 40
0.0
  9
$DIMAZIN
 70
     0
  9
$DIMDSEP
 70
    46
  9
$DIMATFIT
 70
     3
  9
$DIMFRAC
 70
     0
  9
$DIMLDRBLK
  1

  9
$DIMLUNIT
 70
     2
  9
$DIMLWD
 70
    -2
  9
$DIMLWE
 70
    -2
  9
$DIMTMOVE
 70
     0
  9
$LUNITS
 70
     2
  9
$LUPREC
 70
     4
  9
$SKETCHINC
 40
0.1
  9
$FILLETRAD
 40
0.0
  9
$AUNITS
 70
     0
  9
$AUPREC
 70
     0
  9
$MENU
  1
.
  9
$ELEVATION
 40
0.0
  9
$PELEVATION
 40
0.0
  9
$THICKNESS
 40
0.0
  9
$LIMCHECK
 70
     0
  9
$CHAMFERA
 40
0.0
  9
$CHAMFERB
 40
0.0
  9
$CHAMFERC
 40
0.0
  9
$CHAMFERD
 40
0.0
  9
$SKPOLY
 70
     0
  9
$TDCREATE
 40
2454871.497639329
  9
$TDUCREATE
 40
2454871.455972662
  9
$TDUPDATE
 40
2456239.697261563
  9
$TDUUPDATE
 40
2456239.655594896
  9
$TDINDWG
 40
0.0131506829
  9
$TDUSRTIMER
 40
0.0131506829
  9
$USRTIMER
 70
     1
  9
$ANGBASE
 50
0.0
  9
$ANGDIR
 70
     0
  9
$PDMODE
 70
     0
  9
$PDSIZE
 40
0.0
  9
$PLINEWID
 40
0.0
  9
$SPLFRAME
 70
     0
  9
$SPLINETYPE
 70
     6
  9
$SPLINESEGS
 70
     8
  9
$HANDSEED
  5
2A3
  9
$SURFTAB1
 70
     6
  9
$SURFTAB2
 70
     6
  9
$SURFTYPE
 70
     6
  9
$SURFU
 70
     6
  9
$SURFV
 70
     6
  9
$UCSBASE
  2

  9
$UCSNAME
  2

  9
$UCSORG
 10
0.0
 20
0.0
 30
0.0
  9
$UCSXDIR
 10
1.0
 20
0.0
 30
0.0
  9
$UCSYDIR
 10
0.0
 20
1.0
 30
0.0
  9
$UCSORTHOREF
  2

  9
$UCSORTHOVIEW
 70
     0
  9
$UCSORGTOP
 10
0.0
 20
0.0
 30
0.0
  9
$UCSORGBOTTOM
 10
0.0
 20
0.0
 30
0.0
  9
$UCSORGLEFT
 10
0.0
 20
0.0
 30
0.0
  9
$UCSORGRIGHT
 10
0.0
 20
0.0
 30
0.0
  9
$UCSORGFRONT
 10
0.0
 20
0.0
 30
0.0
  9
$UCSORGBACK
 10
0.0
 20
0.0
 30
0.0
  9
$PUCSBASE
  2

  9
$PUCSNAME
  2

  9
$PUCSORG
 10
0.0
 20
0.0
 30
0.0
  9
$PUCSXDIR
 10
1.0
 20
0.0
 30
0.0
  9
$PUCSYDIR
 10
0.0
 20
1.0
 30
0.0
  9
$PUCSORTHOREF
  2

  9
$PUCSORTHOVIEW
 70
     0
  9
$PUCSORGTOP
 10
0.0
 20
0.0
 30
0.0
  9
$PUCSORGBOTTOM
 10
0.0
 20
0.0
 30
0.0
  9
$PUCSORGLEFT
 10
0.0
 20
0.0
 30
0.0
  9
$PUCSORGRIGHT
 10
0.0
 20
0.0
 30
0.0
  9
$PUCSORGFRONT
 10
0.0
 20
0.0
 30
0.0
  9
$PUCSORGBACK
 10
0.0
 20
0.0
 30
0.0
  9
$USERI1
 70
     0
  9
$USERI2
 70
     0
  9
$USERI3
 70
     0
  9
$USERI4
 70
     0
  9
$USERI5
 70
     0
  9
$USERR1
 40
0.0
  9
$USERR2
 40
0.0
  9
$USERR3
 40
0.0
  9
$USERR4
 40
0.0
  9
$USERR5
 40
0.0
  9
$WORLDVIEW
 70
     1
  9
$SHADEDGE
 70
     3
  9
$SHADEDIF
 70
    70
  9
$TILEMODE
 70
     1
  9
$MAXACTVP
 70
    64
  9
$PINSBASE
 10
0.0
 20
0.0
 30
0.0
  9
$PLIMCHECK
 70
     0
  9
$PEXTMIN
 10
0.0
 20
0.0
 30
0.0
  9
$PEXTMAX
 10
1189.0
 20
840.9999999999998
 30
0.0
  9
$PLIMMIN
 10
0.0
 20
0.0
  9
$PLIMMAX
 10
1189.0
 20
840.9999999999998
  9
$UNITMODE
 70
     0
  9
$VISRETAIN
 70
     1
  9
$PLINEGEN
 70
     0
  9
$PSLTSCALE
 70
     1
  9
$TREEDEPTH
 70
  3020
  9
$CMLSTYLE
  2
Standard
  9
$CMLJUST
 70
     0
  9
$CMLSCALE
 40
1.0
  9
$PROXYGRAPHICS
 70
     1
  9
$MEASUREMENT
 70
     1
  9
$CELWEIGHT
370
    -1
  9
$ENDCAPS
280
     0
  9
$JOINSTYLE
280
     0
  9
$LWDISPLAY
290
     0
  9
$INSUNITS
 70
     4
  9
$HYPERLINKBASE
  1

  9
$STYLESHEET
  1

  9
$XEDIT
290
     1
  9
$CEPSNTYPE
380
     0
  9
$PSTYLEMODE
290
     1
  9
$FINGERPRINTGUID
  2
{9EF8B02D-BE6D-4D1B-B742-DBA6AFD72261}
  9
$VERSIONGUID
  2
{27BC81CF-BE77-41B4-979F-775F52B019F1}
  9
$EXTNAMES
290
     1
  9
$PSVPSCALE
 40
0.0
  9
$OLESTARTUP
290
     0
  0
ENDSEC
  0
SECTION
  2
CLASSES
  0
CLASS
  1
ACDBDICTIONARYWDFLT
  2
AcDbDictionaryWithDefault
  3
ObjectDBX Classes
 90
        0
280
     0
281
     0
  0
CLASS
  1
MATERIAL
  2
AcDbMaterial
  3
ObjectDBX Classes
 90
     1153
280
     0
281
     0
  0
CLASS
  1
VISUALSTYLE
  2
AcDbVisualStyle
  3
ObjectDBX Classes
 90
     4095
280
     0
281
     0
  0
CLASS
  1
SCALE
  2
AcDbScale
  3
ObjectDBX Classes
 90
     1153
280
     0
281
     0
  0
CLASS
  1
TABLESTYLE
  2
AcDbTableStyle
  3
ObjectDBX Classes
 90
     4095
280
     0
281
     0
  0
CLASS
  1
MLEADERSTYLE
  2
AcDbMLeaderStyle
  3
ACDB_MLEADERSTYLE_CLASS
 90
     4095
280
     0
281
     0
  0
CLASS
  1
SORTENTSTABLE
  2
AcDbSortentsTable
  3
ObjectDBX Classes
 90
        0
280
     0
281
     0
  0
CLASS
  1
CELLSTYLEMAP
  2
AcDbCellStyleMap
  3
ObjectDBX Classes
 90
     1152
280
     0
281
     0
  0
CLASS
  1
DICTIONARYVAR
  2
AcDbDictionaryVar
  3
ObjectDBX Classes
 90
        0
280
     0
281
     0
  0
CLASS
  1
ACME_DOCUMENT
  2
AcMeDbDoc
  3
AcMeServices
 90
    33792
280
     1
281
     0
  0
CLASS
  1
AMGSETTINGSOBJ
  2
AmgSettingsObj
  3
"AcadM|Product Description: AutoCAD Mechanical|Company: Autodesk, Inc."
 90
    33792
280
     1
281
     0
  0
CLASS
  1
ACMESCOPE
  2
AcMeScope
  3
AcMeServices
 90
    33792
280
     1
281
     0
  0
CLASS
  1
ACMECOMMANDHISTORY
  2
AcMeCommandHistory
  3
AcMeServices
 90
    33792
280
     1
281
     0
  0
CLASS
  1
ACIMSYSVARMAN
  2
AcImSysVarManager
  3
AcMeServices
 90
    33792
280
     1
281
     0
  0
CLASS
  1
ACIMINTSYSVAR
  2
AcImIntSysVar
  3
AcMeServices
 90
    33792
280
     1
281
     0
  0
CLASS
  1
ACMEDRAWINGMAN
  2
AcMeDrawingMan
  3
AcMeServices
 90
    33792
280
     1
281
     0
  0
CLASS
  1
ACMEVIEW
  2
AcMeView
  3
AcMeServices
 90
    33792
280
     1
281
     0
  0
CLASS
  1
ACDBENTITYCACHE
  2
AcMeEntityCache
  3
AcMeServices
 90
    33792
280
     1
281
     0
  0
CLASS
  1
GSMANAGER
  2
AcMeGSManager
  3
AcMeServices
 90
    33792
280
     1
281
     0
  0
CLASS
  1
AMDTINTERNALREACTOR
  2
AmdtInternalReactor
  3
AcMeServices
 90
    33792
280
     1
281
     0
  0
CLASS
  1
ACMESTATEMGR
  2
AcMeStateMgr
  3
AcMeServices
 90
    33792
280
     1
281
     0
  0
CLASS
  1
ACGREFMASTER
  2
AcGrefMaster
  3
AcAttribServices
 90
    33792
280
     1
281
     0
  0
CLASS
  1
AM_DRAWING_MGR
  2
AcDmDwgMgr
  3
AcMechDwgViewMgmt
 90
    33792
280
     1
281
     0
  0
CLASS
  1
AM_DWG_DOCUMENT
  2
AcDmDwgDocument
  3
AcMechDwgViewMgmt
 90
    33792
280
     1
281
     0
  0
CLASS
  1
AM_DWG_SHEET
  2
AcDmSheet
  3
AcMechDwgViewMgmt
 90
    33792
280
     1
281
     0
  0
CLASS
  1
AM_VIEWDIMPARMAP
  2
AcDmViewDimParMap
  3
AcMechDwgViewMgmt
 90
    33792
280
     1
281
     0
  0
CLASS
  1
ACIMREALSYSVAR
  2
AcImRealSysVar
  3
AcMeServices
 90
    33792
280
     1
281
     0
  0
CLASS
  1
AM_DWGMGR_NAME
  2
AcDmDwgMgrName
  3
AcMechDwgViewMgmt
 90
    33792
280
     1
281
     0
  0
CLASS
  1
ACME_DATABASE
  2
AcMeDbDatabase
  3
AcMeServices
 90
    33792
280
     1
281
     0
  0
CLASS
  1
ACRFINSADJUSTERMGR
  2
AcRfInsAdjusterMgr
  3
AcMeServices
 90
    33792
280
     1
281
     0
  0
CLASS
  1
ACGREFACADMASTER
  2
AcGrefacadMaster
  3
AcGrefServices
 90
    33792
280
     1
281
     0
  0
CLASS
  1
AMDTMENUSTATEMGR
  2
AmdtMenuStateMgr
  3
McadcomServices
 90
    33792
280
     1
281
     0
  0
CLASS
  1
AMDTMCOMMENUSTATE
  2
AmdtMcomMenuState
  3
McadcomServices
 90
    33792
280
     1
281
     0
  0
CLASS
  1
AMIMASTER
  2
AmiMaster
  3
AmiServices
 90
    33792
280
     1
281
     0
  0
CLASS
  1
MAPIAMMOUDLE
  2
MApiAmModule
  3
MApiAmServices
 90
    33792
280
     1
281
     0
  0
CLASS
  1
ACIMSTRSYSVAR
  2
AcImStrSysVar
  3
AcMeServices
 90
    33792
280
     1
281
     0
  0
CLASS
  1
AMDTADMENUSTATE
  2
AmdtAdMenuState
  3
DesignerServices
 90
    33792
280
     1
281
     0
  0
CLASS
  1
ADAPPL
  2
AcAdAppl
  3
DesignerServices
 90
    33792
280
     1
281
     0
  0
CLASS
  1
DEPMGR
  2
AcAdDepMgr
  3
DesignerServices
 90
    33792
280
     1
281
     0
  0
CLASS
  1
PARAMMGR
  2
AcAdParamMgr
  3
DesignerServices
 90
    33792
280
     1
281
     0
  0
CLASS
  1
PARAMSCOPE
  2
AcAdParamScope
  3
DesignerServices
 90
    33792
280
     1
281
     0
  0
CLASS
  1
NAMEDAPPL
  2
AcAdNamedAppl
  3
DesignerServices
 90
    33792
280
     1
281
     0
  0
CLASS
  1
AMDTDMMENUSTATE
  2
AmdtDmMenuState
  3
AcMechDwgViewMgmt
 90
    33792
280
     1
281
     0
  0
CLASS
  1
AMDTAMMENUSTATE
  2
AmdtAmMenuState
  3
DesignerAssemblies
 90
    33792
280
     1
281
     0
  0
CLASS
  1
ACAMPROJECT
  2
AcAmProject
  3
DesignerAssemblies
 90
    33792
280
     1
281
     0
  0
CLASS
  1
ACAMGRCOMPDEF
  2
AcAmGrCompDef
  3
DesignerAssemblies
 90
    33792
280
     1
281
     0
  0
CLASS
  1
ACCMCONTEXT
  2
AcCmContext
  3
DesignerAssemblies
 90
    33792
280
     1
281
     0
  0
CLASS
  1
ACAMCOMPDEF
  2
AcAmCompDef
  3
DesignerAssemblies
 90
    33792
280
     1
281
     0
  0
CLASS
  1
ACAMCOMPDEFMGR
  2
AcAmCompDefMgr
  3
DesignerAssemblies
 90
    33792
280
     1
281
     0
  0
CLASS
  1
AMCONTEXTMGR
  2
AcAmContextMgr
  3
DesignerAssemblies
 90
    33792
280
     1
281
     0
  0
CLASS
  1
ACAMCONTEXTMODELER
  2
AcAmContextModeler
  3
DesignerAssemblies
 90
    33792
280
     1
281
     0
  0
CLASS
  1
ACMDATADICTIONARY
  2
AcmDataDictionary
  3
"AcmSymBB|Product Description: AutoCAD Mechanical|Company: Autodesk, Inc."
 90
    33792
280
     1
281
     0
  0
CLASS
  1
CATALOGSTATE
  2
AcAmCatalogState
  3
DesignerAssemblies
 90
    33792
280
     1
281
     0
  0
CLASS
  1
ACAMGRCOMPDEFSET
  2
AcAmGrCompDefSet
  3
DesignerAssemblies
 90
    33792
280
     1
281
     0
  0
CLASS
  1
AMDTBROWSERDBTAB
  2
AmdtBrowserDbTab
  3
McadcomServices
 90
    33792
280
     1
281
     0
  0
CLASS
  1
CBROWSERAPPOBJECT
  2
CBrowserAppObject
  3
McadcomServices
 90
    33792
280
     1
281
     0
  0
CLASS
  1
DM_PLACEHOLDER
  2
AcDmSelsetPlaceholder
  3
AcMechDwgViewMgmt
 90
    33792
280
     1
281
     0
  0
CLASS
  1
EXACXREFPANELOBJECT
  2
ExAcXREFPanelObject
  3
EXAC_ESW
 90
    33793
280
     1
281
     0
  0
CLASS
  1
NPOCOLLECTION
  2
AcDbImpNonPersistentObjectsCollection
  3
ObjectDBX Classes
 90
    33921
280
     0
281
     0
  0
CLASS
  1
ACMSTANDARDANSI
  2
AcmStandardANSI
  3
"Amdt_StdImp|Product Description: AutoCAD Mechanical|Company: Autodesk, Inc."
 90
    33792
280
     1
281
     0
  0
CLASS
  1
ACMSURFSTANDARDANSI
  2
AcmSurfTextStdANSI
  3
"Amdt_StdImp|Product Description: AutoCAD Mechanical|Company: Autodesk, Inc."
 90
    33792
280
     1
281
     0
  0
CLASS
  1
ACMFCFSTANDARDANSI
  2
AcmFCFStdANSI
  3
"Amdt_StdImp|Product Description: AutoCAD Mechanical|Company: Autodesk, Inc."
 90
    33792
280
     1
281
     0
  0
CLASS
  1
ACMWELDSTANDARDANSI
  2
AcmWeldingStdANSI
  3
"Amdt_StdImp|Product Description: AutoCAD Mechanical|Company: Autodesk, Inc."
 90
    33792
280
     1
281
     0
  0
CLASS
  1
ACMIDSTANDARDANSI
  2
AcmIdStdANSI
  3
"Amdt_StdImp|Product Description: AutoCAD Mechanical|Company: Autodesk, Inc."
 90
    33792
280
     1
281
     0
  0
CLASS
  1
ACMDATUMSTANDARDANSI
  2
AcmDatumStdANSI
  3
"Amdt_StdImp|Product Description: AutoCAD Mechanical|Company: Autodesk, Inc."
 90
    33792
280
     1
281
     0
  0
CLASS
  1
ACMBOMSTANDARDANSI
  2
AcmBOMStdANSI
  3
"Amdt_StdImp|Product Description: AutoCAD Mechanical|Company: Autodesk, Inc."
 90
    33792
280
     1
281
     0
  0
CLASS
  1
ACMDETAILSTANDARDANSI
  2
AmdtDetailSymStdANSI
  3
"Amdt_StdImp|Product Description: AutoCAD Mechanical|Company: Autodesk, Inc."
 90
    33792
280
     1
281
     0
  0
CLASS
  1
ACMSECTIONSTANDARDANSI
  2
AmdtSectionSymStdANSI
  3
"Amdt_StdImp|Product Description: AutoCAD Mechanical|Company: Autodesk, Inc."
 90
    33792
280
     1
281
     0
  0
CLASS
  1
ACMCENTERLINESTANDARDANSI
  2
AmdtCenterLineStdANSI
  3
"Amdt_StdImp|Product Description: AutoCAD Mechanical|Company: Autodesk, Inc."
 90
    33792
280
     1
281
     0
  0
CLASS
  1
ACMTHREADLINESTANDARDANSI
  2
AmdtThreadLineStdANSI
  3
"Amdt_StdImp|Product Description: AutoCAD Mechanical|Company: Autodesk, Inc."
 90
    33792
280
     1
281
     0
  0
CLASS
  1
ACMNOTESTANDARDANSI
  2
AmdtNoteStdANSI
  3
"Amdt_StdImp|Product Description: AutoCAD Mechanical|Company: Autodesk, Inc."
 90
    33792
280
     1
281
     0
  0
CLASS
  1
ACMTAPERSTANDARDANSI
  2
AcmTaperStdANSI
  3
"Amdt_StdImp|Product Description: AutoCAD Mechanical|Company: Autodesk, Inc."
 90
    33792
280
     1
281
     0
  0
CLASS
  1
ACMANOOTATIONVIEWSTANDARDANSI
  2
AmdtAnViewStdANSI
  3
"Amdt_StdImp|Product Description: AutoCAD Mechanical|Company: Autodesk, Inc."
 90
    33792
280
     1
281
     0
  0
CLASS
  1
ACAMGLAYSTD
  2
AcAmgLayStd
  3
"AmgLay|Product Description: AutoCAD Mechanical|Company: Autodesk, Inc."
 90
    33792
280
     1
281
     0
  0
CLASS
  1
ACAMGDIMSTD
  2
AcAmgDimStd
  3
"AmgDim|Product Description: AutoCAD Mechanical|Company: Autodesk, Inc."
 90
    33792
280
     1
281
     0
  0
CLASS
  1
AMGOBJPROPCFG
  2
AmgObjPropCfg
  3
"AmgLay|Product Description: AutoCAD Mechanical|Company: Autodesk, Inc."
 90
    33793
280
     1
281
     0
  0
CLASS
  1
ACAMGHOLECHARTSTDANSI
  2
AcAmgHoleChartStdANSI
  3
AmgDim|Product Description: AutoCAD Mechanical|Company: Autodesk, Inc.
 90
    33792
280
     1
281
     0
  0
CLASS
  1
ACAMGTITLESTD
  2
AcAmgTitleStd
  3
"AmgTitle|Product Description: AutoCAD Mechanical|Company: Autodesk, Inc."
 90
    36863
280
     1
281
     0
  0
CLASS
  1
AMDTNOTETEMPLATEDB
  2
AmdtNoteTemplateDB
  3
AcmSymBB|Product Description: AutoCAD Mechanical|Company: Autodesk, Inc.
 90
    33792
280
     1
281
     0
  0
CLASS
  1
ACAMGFILTERDAT
  2
AcAmgFilterDat
  3
"AcadM|Product Description: AutoCAD Mechanical|Company: Autodesk, Inc."
 90
    33792
280
     1
281
     0
  0
CLASS
  1
CAMSSTRUCTBTNSTATE
  2
StructBtnState
  3
DesignerAssemblies
 90
    33792
280
     1
281
     0
  0
CLASS
  1
ACDBPLACEHOLDER
  2
AcDbPlaceHolder
  3
ObjectDBX Classes
 90
        0
280
     0
281
     0
  0
CLASS
  1
LAYOUT
  2
AcDbLayout
  3
ObjectDBX Classes
 90
        0
280
     0
281
     0
  0
CLASS
  1
SOLID_BACKGROUND
  2
AcDbSolidBackground
  3
SCENEOE
 90
    36863
280
     0
281
     0
  0
ENDSEC
  0
SECTION
  2
TABLES
  0
TABLE
  2
VPORT
  5
28
102
{ACAD_XDICTIONARY
360
2D
102
}
330
0
100
AcDbSymbolTable
 70
     1
  0
VPORT
  5
29
330
28
100
AcDbSymbolTableRecord
100
AcDbViewportTableRecord
  2
*ACTIVE
 70
     0
 10
0.0
 20
0.0
 11
1.0
 21
1.0
 12
0.0090734263756076
 22
548.7943365190807
 13
0.0
 23
0.0
 14
1.0
 24
1.0
 15
0.0
 25
0.0
 16
0.0
 26
0.0
 36
1.0
 17
0.0
 27
0.0
 37
0.0
 40
1279.154831493136
 41
3.090056285178236
 42
50.0
 43
0.0
 44
0.0
 50
0.0
 51
0.0
 71
     0
 72
   100
 73
     1
 74
     1
 75
     0
 76
     0
 77
     0
 78
     0
281
     0
 65
     1
110
0.0
120
0.0
130
0.0
111
1.0
121
0.0
131
0.0
112
0.0
122
1.0
132
0.0
 79
     0
146
0.0
1001
ACAD_NAV_VCDISPLAY
1070
     3
  0
ENDTAB
  0
TABLE
  2
LTYPE
  5
23
330
0
100
AcDbSymbolTable
 70
     1
  0
LTYPE
  5
24
330
23
100
AcDbSymbolTableRecord
100
AcDbLinetypeTableRecord
  2
ByBlock
 70
     0
  3

 72
    65
 73
     0
 40
0.0
  0
LTYPE
  5
25
330
23
100
AcDbSymbolTableRecord
100
AcDbLinetypeTableRecord
  2
ByLayer
 70
     0
  3

 72
    65
 73
     0
 40
0.0
  0
LTYPE
  5
13
330
23
100
AcDbSymbolTableRecord
100
AcDbLinetypeTableRecord
  2
CONTINUOUS
 70
     0
  3
Solid line
 72
    65
 73
     0
 40
0.0
  0
ENDTAB
  0
TABLE
  2
LAYER
  5
1B
102
{ACAD_XDICTIONARY
360
1C
102
}
330
0
100
AcDbSymbolTable
 70
     6
  0
LAYER
  5
6
330
1B
100
AcDbSymbolTableRecord
100
AcDbLayerTableRecord
  2
0
 70
     0
 62
     7
  6
CONTINUOUS
370
    -3
390
7
  0
LAYER
  5
7C
330
1B
100
AcDbSymbolTableRecord
100
AcDbLayerTableRecord
  2
GEB-KONTUR-A
 70
     0
 62
     5
  6
CONTINUOUS
370
    -3
390
7
  0
LAYER
  5
238
330
1B
100
AcDbSymbolTableRecord
100
AcDbLayerTableRecord
  2
GEB-ART-NR
 70
     0
 62
     1
  6
CONTINUOUS
370
    18
390
7
  0
LAYER
  5
73
330
1B
100
AcDbSymbolTableRecord
100
AcDbLayerTableRecord
  2
GEB-BEZUG
 70
     0
 62
     2
  6
CONTINUOUS
370
    25
390
7
  0
LAYER
  5
235
330
1B
100
AcDbSymbolTableRecord
100
AcDbLayerTableRecord
  2
GEB-TEXT
 70
     0
 62
     5
  6
CONTINUOUS
370
    18
390
7
  0
LAYER
  5
77
330
1B
100
AcDbSymbolTableRecord
100
AcDbLayerTableRecord
  2
Arbeitspunkt(DIN)
 70
     0
 62
     7
  6
CONTINUOUS
370
    25
390
7
  0
ENDTAB
  0
TABLE
  2
STYLE
  5
20
330
0
100
AcDbSymbolTable
 70
     1
  0
STYLE
  5
21
330
20
100
AcDbSymbolTableRecord
100
AcDbTextStyleTableRecord
  2
STANDARD
 70
     0
 40
0.0
 41
1.0
 50
0.0
 71
     0
 42
0.2
  3
arial.ttf
  4

1001
ACAD
1000
Arial
1071
       34
  0
ENDTAB
  0
TABLE
  2
VIEW
  5
26
330
0
100
AcDbSymbolTable
 70
     0
  0
ENDTAB
  0
TABLE
  2
UCS
  5
27
330
0
100
AcDbSymbolTable
 70
     0
  0
ENDTAB
  0
TABLE
  2
APPID
  5
2E
330
0
100
AcDbSymbolTable
 70
     3
  0
APPID
  5
1F
330
2E
100
AcDbSymbolTableRecord
100
AcDbRegAppTableRecord
  2
ACAD
 70
     0
  0
APPID
  5
2C
330
2E
100
AcDbSymbolTableRecord
100
AcDbRegAppTableRecord
  2
ACAD_NAV_VCDISPLAY
 70
     0
  0
APPID
  5
2A2
330
2E
100
AcDbSymbolTableRecord
100
AcDbRegAppTableRecord
  2
ACAD_MLEADERVER
 70
     0
  0
ENDTAB
  0
TABLE
  2
DIMSTYLE
  5
2F
330
0
100
AcDbSymbolTable
 70
     1
100
AcDbDimStyleTable
 71
     1
340
30
  0
DIMSTYLE
105
30
330
2F
100
AcDbSymbolTableRecord
100
AcDbDimStyleTableRecord
  2
STANDARD
 70
     0
279
     2
340
21
  0
ENDTAB
  0
TABLE
  2
BLOCK_RECORD
  5
1
330
0
100
AcDbSymbolTable
 70
     1
  0
BLOCK_RECORD
  5
2
102
{ACAD_XDICTIONARY
360
3
102
}
330
1
100
AcDbSymbolTableRecord
100
AcDbBlockTableRecord
  2
*Model_Space
340
15
  0
BLOCK_RECORD
  5
17
330
1
100
AcDbSymbolTableRecord
100
AcDbBlockTableRecord
  2
*Paper_Space
340
1A
  0
BLOCK_RECORD
  5
70
330
1
100
AcDbSymbolTableRecord
100
AcDbBlockTableRecord
  2
Einfügepunkt
340
0
102
{BLKREFS
331
6F
102
}
  0
ENDTAB
  0
ENDSEC
  0
SECTION
  2
BLOCKS
  0
BLOCK
  5
5
330
2
100
AcDbEntity
  8
0
100
AcDbBlockBegin
  2
*Model_Space
 70
     0
 10
0.0
 20
0.0
 30
0.0
  3
*Model_Space
  1

  0
ENDBLK
  5
14
330
2
100
AcDbEntity
  8
0
100
AcDbBlockEnd
  0
BLOCK
  5
18
330
17
100
AcDbEntity
 67
     1
  8
0
100
AcDbBlockBegin
  2
*Paper_Space
 70
     0
 10
0.0
 20
0.0
 30
0.0
  3
*Paper_Space
  1

  0
ENDBLK
  5
19
330
17
100
AcDbEntity
 67
     1
  8
0
100
AcDbBlockEnd
  0
BLOCK
  5
71
330
70
100
AcDbEntity
  8
0
100
AcDbBlockBegin
  2
Einfügepunkt
 70
     0
 10
0.0
 20
0.0
 30
0.0
  3
Einfügepunkt
  1

  0
LINE
  5
72
330
70
100
AcDbEntity
  8
GEB-BEZUG
100
AcDbLine
 10
-7.071067811865816
 20
-7.071067811865106
 30
0.0
 11
7.07106781186475
 21
7.071067811865816
 31
0.0
  0
LINE
  5
74
330
70
100
AcDbEntity
  8
GEB-BEZUG
100
AcDbLine
 10
-7.071067811865106
 20
7.071067811865816
 30
0.0
 11
7.071067811865461
 21
-7.071067811865106
 31
0.0
  0
ENDBLK
  5
75
330
70
100
AcDbEntity
  8
0
100
AcDbBlockEnd
  0
ENDSEC
  0
SECTION
  2
ENTITIES
  0
INSERT
  5
6F
330
2
100
AcDbEntity
  8
0
 48
25.0
100
AcDbBlockReference
  2
Einfügepunkt
 10
0.0
 20
0.0
 30
0.0
  0
LINE
  5
76
330
2
100
AcDbEntity
  8
Arbeitspunkt(DIN)
 48
25.0
100
AcDbLine
 10
0.0
 20
0.0
 30
0.0
 11
0.0
 21
-2.5
 31
0.0
  0
LINE
  5
78
330
2
100
AcDbEntity
  8
Arbeitspunkt(DIN)
 48
25.0
100
AcDbLine
 10
0.0
 20
0.0
 30
0.0
 11
0.0
 21
2.5
 31
0.0
  0
LINE
  5
79
330
2
100
AcDbEntity
  8
Arbeitspunkt(DIN)
 48
25.0
100
AcDbLine
 10
0.0
 20
0.0
 30
0.0
 11
-2.5
 21
0.0
 31
0.0
  0
LINE
  5
7A
330
2
100
AcDbEntity
  8
Arbeitspunkt(DIN)
 48
25.0
100
AcDbLine
 10
0.0
 20
0.0
 30
0.0
 11
2.5
 21
0.0
 31
0.0
  0
SPLINE
  5
7B
330
2
100
AcDbEntity
  8
GEB-KONTUR-A
 48
25.0
100
AcDbSpline
210
0.0
220
0.0
230
1.0
 70
     8
 71
     3
 72
     8
 73
     4
 74
     0
 42
0.0000000001
 43
0.0000000001
 40
0.0
 40
0.0
 40
0.0
 40
0.0
 40
0.3182648342205396
 40
0.3182648342205396
 40
0.3182648342205396
 40
0.3182648342205396
 10
-80.73141547885365
 20
974.3083599084457
 30
0.0
 10
-81.13659141184616
 20
975.2413136983959
 30
0.0
 10
-81.51930869651044
 20
976.1860495992941
 30
0.0
 10
-81.87923934960332
 20
977.1414422559479
 30
0.0
  0
SPLINE
  5
7D
330
2
100
AcDbEntity
  8
GEB-KONTUR-A
 48
25.0
100
AcDbSpline
210
0.0
220
0.0
230
1.0
 70
     8
 71
     3
 72
    20
 73
    16
 74
     0
 42
0.0000000001
 43
0.0000000001
 40
0.3183236167735709
 40
0.3183236167735709
 40
0.3183236167735709
 40
0.3183236167735709
 40
1.494047641649919
 40
1.494047641649919
 40
2.546306351279841
 40
2.546306351279841
 40
3.022771368600067
 40
3.022771368600067
 40
4.078544025717273
 40
4.078544025717273
 40
5.588930051752996
 40
5.588930051752996
 40
7.681244569357541
 40
7.681244569357541
 40
8.953385980307171
 40
8.953385980307171
 40
8.953385980307171
 40
8.953385980307171
 10
-81.87923934960332
 20
977.1414422559479
 30
0.0
 10
-83.20839372768114
 20
980.6695227944153
 30
0.0
 10
-84.22581206741545
 20
984.3404912297474
 30
0.0
 10
-85.5356824515564
 20
991.4599138133258
 30
0.0
 10
-85.89239426241778
 20
994.8876827443319
 30
0.0
 10
-86.0184034241189
 20
999.9014907492137
 30
0.0
 10
-86.0023226172828
 20
1001.468628163737
 30
0.0
 10
-85.77054107107533
 20
1006.509583883996
 30
0.0
 10
-85.33591786246899
 20
1009.983190395083
 30
0.0
 10
-83.59852712522963
 20
1018.3137041597
 30
0.0
 10
-82.00462140938197
 20
1023.110536210955
 30
0.0
 10
-76.83914298868166
 20
1033.941181811169
 30
0.0
 10
-72.77977436549855
 20
1039.657147063492
 30
0.0
 10
-64.74125840301008
 20
1047.268228048337
 30
0.0
 10
-61.40101866125286
 20
1049.73801636672
 30
0.0
 10
-57.82321509625376
 20
1051.733990582458
 30
0.0
  0
SPLINE
  5
7E
330
2
100
AcDbEntity
  8
GEB-KONTUR-A
 48
25.0
100
AcDbSpline
210
0.0
220
0.0
230
1.0
 70
     8
 71
     3
 72
    22
 73
    18
 74
     0
 42
0.0000000001
 43
0.0000000001
 40
0.0
 40
0.0
 40
0.0
 40
0.0
 40
1.800991306938076
 40
1.800991306938076
 40
3.460789527781026
 40
3.460789527781026
 40
5.131936338908069
 40
5.131936338908069
 40
7.098221304741255
 40
7.098221304741255
 40
9.151796167404794
 40
9.151796167404794
 40
10.09609934831658
 40
10.09609934831658
 40
11.48589014406343
 40
11.48589014406343
 40
12.76500023875798
 40
12.76500023875798
 40
12.76500023875798
 40
12.76500023875798
 10
-57.82321509625382
 20
1051.733990582458
 30
0.0
 10
-52.74574686680438
 20
1054.566593178741
 30
0.0
 10
-47.16346347225891
 20
1056.461646997415
 30
0.0
 10
-35.83473141245503
 20
1057.841964920233
 30
0.0
 10
-30.34677917319795
 20
1057.478830155711
 30
0.0
 10
-19.60337406838283
 20
1054.690720049336
 30
0.0
 10
-14.55947045216004
 20
1052.304344538047
 30
0.0
 10
-4.664978006806961
 20
1045.382210532694
 30
0.0
 10
-0.1063410236815798
 20
1040.614950670062
 30
0.0
 10
7.364557841201303
 20
1029.508701499803
 30
0.0
 10
10.15299947654011
 20
1023.186352647611
 30
0.0
 10
12.69091804285432
 20
1013.457213376101
 30
0.0
 10
13.26035990729423
 20
1010.346808567361
 30
0.0
 10
14.11166887745003
 20
1002.606728831411
 30
0.0
 10
14.12664895007003
 20
998.0042082404075
 30
0.0
 10
13.26377524514504
 20
989.3122193887993
 30
0.0
 10
12.45938633635012
 20
985.2435367794633
 30
0.0
 10
11.29008796566103
 20
981.3271875494201
 30
0.0
  0
SPLINE
  5
7F
330
2
100
AcDbEntity
  8
GEB-KONTUR-A
 48
25.0
100
AcDbSpline
210
0.0
220
0.0
230
1.0
 70
     8
 71
     3
 72
     8
 73
     4
 74
     0
 42
0.0000000001
 43
0.0000000001
 40
1.570399810969134
 40
1.570399810969134
 40
1.570399810969134
 40
1.570399810969134
 40
2.319324246925105
 40
2.319324246925105
 40
2.319324246925105
 40
2.319324246925105
 10
11.29008796566103
 20
981.3271875494201
 30
0.0
 10
10.61187665268346
 20
979.0556438442658
 30
0.0
 10
9.811090693105256
 20
976.836611038126
 30
0.0
 10
8.891720548524574
 20
974.6808381627584
 30
0.0
  0
SPLINE
  5
80
330
2
100
AcDbEntity
  8
GEB-KONTUR-A
 48
25.0
100
AcDbSpline
210
0.0
220
0.0
230
1.0
 70
     8
 71
     3
 72
     8
 73
     4
 74
     0
 42
0.0000000001
 43
0.0000000001
 40
0.0639383057754451
 40
0.0639383057754451
 40
0.0639383057754451
 40
0.0639383057754451
 40
1.396196427073261
 40
1.396196427073261
 40
1.396196427073261
 40
1.396196427073261
 10
-74.12682757837234
 20
962.800654745345
 30
0.0
 10
-76.7533863859432
 20
966.3608858002428
 30
0.0
 10
-78.95773115850118
 20
970.2242932888566
 30
0.0
 10
-80.73141546373831
 20
974.3083599029004
 30
0.0
  0
SPLINE
  5
81
330
2
100
AcDbEntity
  8
GEB-KONTUR-A
 48
25.0
100
AcDbSpline
210
0.0
220
0.0
230
1.0
 70
     8
 71
     3
 72
    10
 73
     6
 74
     0
 42
0.0000000001
 43
0.0000000001
 40
0.0
 40
0.0
 40
0.0
 40
0.0
 40
1.573467541026522
 40
1.573467541026522
 40
2.357870068010711
 40
2.357870068010711
 40
2.357870068010711
 40
2.357870068010711
 10
-57.82321509625376
 20
974.6890380818133
 30
0.0
 10
-62.82921384073785
 20
974.5804863818404
 30
0.0
 10
-67.90331348331335
 20
974.4876873055552
 30
0.0
 10
-75.58626402899
 20
974.3727447936709
 30
0.0
 10
-78.15391484337493
 20
974.3385275715079
 30
0.0
 10
-80.73141546352321
 20
974.3083599086251
 30
0.0
  0
SPLINE
  5
82
330
2
100
AcDbEntity
  8
GEB-KONTUR-A
 48
25.0
100
AcDbSpline
210
0.0
220
0.0
230
1.0
 70
     8
 71
     3
 72
    10
 73
     6
 74
     0
 42
0.0000000001
 43
0.0000000001
 40
0.0
 40
0.0
 40
0.0
 40
0.0
 40
1.580701231707968
 40
1.580701231707968
 40
2.201349983278774
 40
2.201349983278774
 40
2.201349983278774
 40
2.201349983278774
 10
-57.8232150962537
 20
948.2660094175422
 30
0.0
 10
-62.40895830178738
 20
950.8242899469095
 30
0.0
 10
-66.54029839522621
 20
954.1247987743586
 30
0.0
 10
-71.53106149190875
 20
959.4839177997236
 30
0.0
 10
-72.86852458562544
 20
961.0950582902667
 30
0.0
 10
-74.12682757837234
 20
962.800654745345
 30
0.0
  0
SPLINE
  5
83
330
2
100
AcDbEntity
  8
GEB-KONTUR-A
 48
25.0
100
AcDbSpline
210
0.0
220
0.0
230
1.0
 70
     8
 71
     3
 72
    10
 73
     6
 74
     0
 42
0.0000000001
 43
0.0000000001
 40
3.73786960553096
 40
3.73786960553096
 40
3.73786960553096
 40
3.73786960553096
 40
3.923592186812321
 40
3.923592186812321
 40
4.602965328740509
 40
4.602965328740509
 40
4.602965328740509
 40
4.602965328740509
 10
-49.96045865953561
 20
944.7867574934658
 30
0.0
 10
-50.54440615798961
 20
944.9820231730567
 30
0.0
 10
-51.12457845311098
 20
945.1893139120864
 30
0.0
 10
-53.80817227102983
 20
946.2100327793312
 30
0.0
 10
-55.85271467277085
 20
947.1667126099005
 30
0.0
 10
-57.82321509625376
 20
948.2660094175422
 30
0.0
  0
SPLINE
  5
84
330
2
100
AcDbEntity
  8
GEB-KONTUR-A
 48
25.0
100
AcDbSpline
210
0.0
220
0.0
230
1.0
 70
     8
 71
     3
 72
    10
 73
     6
 74
     0
 42
0.0000000001
 43
0.0000000001
 40
0.6283937742925861
 40
0.6283937742925861
 40
0.6283937742925861
 40
0.6283937742925861
 40
3.709550581175179
 40
3.709550581175179
 40
7.42047664351323
 40
7.42047664351323
 40
7.42047664351323
 40
7.42047664351323
 10
8.891720548524631
 20
974.6808381627584
 30
0.0
 10
-0.8811931495145017
 20
974.8953979386483
 30
0.0
 10
-11.04550607991183
 20
975.0153647067948
 30
0.0
 10
-33.67597525080095
 20
975.0625726928053
 30
0.0
 10
-46.01679897289983
 20
974.9450522372679
 30
0.0
 10
-57.82321509625376
 20
974.6890380818133
 30
0.0
  0
SPLINE
  5
85
330
2
100
AcDbEntity
  8
GEB-KONTUR-A
 48
25.0
100
AcDbSpline
210
0.0
220
0.0
230
1.0
 70
     8
 71
     3
 72
    18
 73
    14
 74
     0
 42
0.0000000001
 43
0.0000000001
 40
0.0410877684923034
 40
0.0410877684923034
 40
0.0410877684923034
 40
0.0410877684923034
 40
1.974323775156155
 40
1.974323775156155
 40
3.958948043249311
 40
3.958948043249311
 40
5.218271755048993
 40
5.218271755048993
 40
6.175732408707462
 40
6.175732408707462
 40
6.892199998149833
 40
6.892199998149833
 40
7.382327871015522
 40
7.382327871015522
 40
7.382327871015522
 40
7.382327871015522
 10
8.891720548524574
 20
974.6808381627584
 30
0.0
 10
6.36460629487783
 20
968.7551678621939
 30
0.0
 10
2.91954931438812
 20
963.2549940994508
 30
0.0
 10
-5.816341051023414
 20
953.6200353849698
 30
0.0
 10
-11.08451392482857
 20
949.6067960186509
 30
0.0
 10
-20.76491554233871
 20
945.0353386453727
 30
0.0
 10
-24.73332307031086
 20
943.7768868727799
 30
0.0
 10
-31.94513912794247
 20
942.5752096304734
 30
0.0
 10
-35.10175859162422
 20
942.3945556792732
 30
0.0
 10
-40.62039301960737
 20
942.6814952553881
 30
0.0
 10
-42.96684028336966
 20
942.9965579482782
 30
0.0
 10
-46.86336674488972
 20
943.8429918629941
 30
0.0
 10
-48.4249622566241
 20
944.2733042302561
 30
0.0
 10
-49.96045865953561
 20
944.7867574934658
 30
0.0
  0
ARC
  5
86
330
2
100
AcDbEntity
  8
GEB-KONTUR-A
 48
25.0
100
AcDbCircle
 10
-120.5000000000004
 20
1079.5
 30
0.0
 40
2.500000000000088
100
AcDbArc
 50
90.00000000000325
 51
180.0
  0
LINE
  5
87
330
2
100
AcDbEntity
  8
GEB-KONTUR-A
 48
25.0
100
AcDbLine
 10
-123.0000000000004
 20
920.5000000000001
 30
0.0
 11
-123.0000000000004
 21
1079.5
 31
0.0
  0
ARC
  5
88
330
2
100
AcDbEntity
  8
GEB-KONTUR-A
 48
25.0
100
AcDbCircle
 10
-120.5000000000003
 20
920.5000000000001
 30
0.0
 40
2.500000000000071
100
AcDbArc
 50
180.0
 51
270.0000000000033
  0
LINE
  5
89
330
2
100
AcDbEntity
  8
GEB-KONTUR-A
 48
25.0
100
AcDbLine
 10
120.4999999999996
 20
918.0000000000003
 30
0.0
 11
-120.5000000000001
 21
918.0
 31
0.0
  0
SPLINE
  5
8A
330
2
100
AcDbEntity
  8
GEB-KONTUR-A
 48
25.0
100
AcDbSpline
210
0.0
220
0.0
230
1.0
 70
     8
 71
     3
 72
    20
 73
    16
 74
     0
 42
0.0000000001
 43
0.0000000001
 40
-3.141592653589793
 40
-3.141592653589793
 40
-3.141592653589793
 40
-3.141592653589793
 40
-2.84706834231575
 40
-2.552544031041707
 40
-2.356194490192344
 40
-1.96349540849362
 40
-1.570796326794896
 40
-1.178097245096172
 40
-0.7853981633974483
 40
-0.5890486225480862
 40
-0.2945243112740431
 40
0.0
 40
0.2945243112740431
 40
0.5890486225480862
 40
0.7740389055735064
 40
0.7740389055735064
 40
0.7740389055735064
 40
0.7740389055735064
 10
35.99999999999966
 20
941.0
 30
0.0
 10
41.05600067674714
 20
941.0
 30
0.0
 10
51.16727315643891
 20
942.7183874517368
 30
0.0
 10
63.48757413800632
 20
949.395256769079
 30
0.0
 10
75.27154002113849
 20
960.4711810738647
 30
0.0
 10
84.81812129860447
 20
976.8338876622356
 30
0.0
 10
88.84040715588065
 20
999.9998522252202
 30
0.0
 10
84.81822002315254
 20
1023.165839285579
 30
0.0
 10
75.2715084614278
 20
1039.528571738122
 30
0.0
 10
63.48770397197824
 20
1050.604763256845
 30
0.0
 10
51.16741360461304
 20
1057.28156373924
 30
0.0
 10
36.00007338397239
 20
1059.859100933305
 30
0.0
 10
20.83272684356035
 20
1057.281612548272
 30
0.0
 10
8.690615068232261
 20
1050.701311167499
 30
0.0
 10
2.270948366017705
 20
1044.733722954127
 30
0.0
 10
-0.0000000000002842
 20
1042.190498635763
 30
0.0
  0
SPLINE
  5
8B
330
2
100
AcDbEntity
  8
GEB-KONTUR-A
 48
25.0
100
AcDbSpline
210
0.0
220
0.0
230
1.0
 70
     8
 71
     3
 72
    10
 73
     6
 74
     0
 42
0.0000000001
 43
0.0000000001
 40
2.367553748016286
 40
2.367553748016286
 40
2.367553748016286
 40
2.367553748016286
 40
2.552544031041707
 40
2.84706834231575
 40
3.141592653589793
 40
3.141592653589793
 40
3.141592653589793
 40
3.141592653589793
 10
-0.0000000000002842
 20
957.8095013642368
 30
0.0
 10
2.27096134629329
 20
955.2662625093237
 30
0.0
 10
8.690485080750818
 20
949.2986656134176
 30
0.0
 10
20.83258639538406
 20
942.7181466451889
 30
0.0
 10
30.94399933154261
 20
941.0002896155706
 30
0.0
 10
35.99999999999966
 20
941.0
 30
0.0
  0
ARC
  5
8C
330
2
100
AcDbEntity
  8
GEB-KONTUR-A
 48
25.0
100
AcDbCircle
 10
120.4999999999996
 20
920.5000000000001
 30
0.0
 40
2.500000000000017
100
AcDbArc
 50
270.0
 51
0.0
  0
LINE
  5
8D
330
2
100
AcDbEntity
  8
GEB-KONTUR-A
 48
25.0
100
AcDbLine
 10
122.9999999999996
 20
1079.5
 30
0.0
 11
122.9999999999996
 21
920.5000000000001
 31
0.0
  0
ARC
  5
8E
330
2
100
AcDbEntity
  8
GEB-KONTUR-A
 48
25.0
100
AcDbCircle
 10
120.4999999999996
 20
1079.5
 30
0.0
 40
2.500000000000017
100
AcDbArc
 50
0.0
 51
90.0
  0
LINE
  5
8F
330
2
100
AcDbEntity
  8
GEB-KONTUR-A
 48
25.0
100
AcDbLine
 10
-120.5000000000004
 20
1082.0
 30
0.0
 11
120.4999999999996
 21
1082.0
 31
0.0
  0
SPLINE
  5
90
330
2
100
AcDbEntity
  8
GEB-KONTUR-A
 48
25.0
100
AcDbSpline
210
0.0
220
0.0
230
1.0
 70
     8
 71
     3
 72
    10
 73
     6
 74
     0
 42
0.0000000001
 43
0.0000000001
 40
-3.141592653589793
 40
-3.141592653589793
 40
-3.141592653589793
 40
-3.141592653589793
 40
-2.84706834231575
 40
-2.552544031041707
 40
-2.367553748016287
 40
-2.367553748016287
 40
-2.367553748016287
 40
-2.367553748016287
 10
-36.00000000000017
 20
941.0
 30
0.0
 10
-30.94399932325274
 20
941.0
 30
0.0
 10
-20.83272684355876
 20
942.7183874517368
 30
0.0
 10
-8.690615068231466
 20
949.2986888324999
 30
0.0
 10
-2.270948366017819
 20
955.2662770458733
 30
0.0
 10
-0.0000000000002842
 20
957.8095013642368
 30
0.0
  0
SPLINE
  5
91
330
2
100
AcDbEntity
  8
GEB-KONTUR-A
 48
25.0
100
AcDbSpline
210
0.0
220
0.0
230
1.0
 70
    24
 71
     3
 72
    10
 73
     6
 74
     0
 42
0.0000000001
 43
0.0000000001
 40
0.6792603192668553
 40
0.6792603192668553
 40
0.6792603192668553
 40
0.6792603192668553
 40
1.504050240032271
 40
1.504050240032271
 40
3.008278107111214
 40
3.008278107111214
 40
3.008278107111214
 40
3.008278107111214
 10
-0.0000000000002842
 20
956.0059734264745
 30
0.0
 10
-0.0000000000002842
 20
956.2161983121562
 30
0.0
 10
-0.0000000000002274
 20
956.4273426608085
 30
0.0
 10
-0.0000000000002842
 20
957.026051649859
 30
0.0
 10
-0.0000000000002842
 20
957.4161816133434
 30
0.0
 10
-0.0000000000002842
 20
957.8095013642368
 30
0.0
  0
SPLINE
  5
92
330
2
100
AcDbEntity
  8
GEB-KONTUR-A
 48
25.0
100
AcDbSpline
210
0.0
220
0.0
230
1.0
 70
    24
 71
     3
 72
    10
 73
     6
 74
     0
 42
0.0000000001
 43
0.0000000001
 40
0.0
 40
0.0
 40
0.0
 40
0.0
 40
0.7631224361773935
 40
0.7631224361773935
 40
2.328678509483673
 40
2.328678509483673
 40
2.328678509483673
 40
2.328678509483673
 10
-0.0000000000002842
 20
1042.190498635763
 30
0.0
 10
-0.0000000000002842
 20
1042.390034676111
 30
0.0
 10
-0.0000000000002842
 20
1042.588715888981
 30
0.0
 10
-0.0000000000002842
 20
1043.192282508948
 30
0.0
 10
-0.0000000000002842
 20
1043.59488000297
 30
0.0
 10
-0.0000000000002842
 20
1043.994026573525
 30
0.0
  0
SPLINE
  5
93
330
2
100
AcDbEntity
  8
GEB-KONTUR-A
 48
25.0
100
AcDbSpline
210
0.0
220
0.0
230
1.0
 70
     8
 71
     3
 72
    20
 73
    16
 74
     0
 42
0.0000000001
 43
0.0000000001
 40
-0.7740389055735068
 40
-0.7740389055735068
 40
-0.7740389055735068
 40
-0.7740389055735068
 40
-0.5890486225480862
 40
-0.2945243112740431
 40
0.0
 40
0.2945243112740431
 40
0.5890486225480862
 40
0.7853981633974483
 40
1.178097245096172
 40
1.570796326794896
 40
1.96349540849362
 40
2.356194490192344
 40
2.552544031041707
 40
2.84706834231575
 40
3.141592653589793
 40
3.141592653589793
 40
3.141592653589793
 40
3.141592653589793
 10
-0.0000000000002842
 20
1042.190498635763
 30
0.0
 10
-2.270961300909391
 20
1044.73373743985
 30
0.0
 10
-8.690485080750079
 20
1050.70133019786
 30
0.0
 10
-20.83258639538678
 20
1057.28156373924
 30
0.0
 10
-35.9999266160275
 20
1059.859100933305
 30
0.0
 10
-51.16727315644169
 20
1057.281612548272
 30
0.0
 10
-63.48757413800985
 20
1050.604743230919
 30
0.0
 10
-75.27154002113912
 20
1039.528818926129
 30
0.0
 10
-84.81812129860509
 20
1023.16611233777
 30
0.0
 10
-88.84040715588122
 20
1000.000147774777
 30
0.0
 10
-84.81822002314732
 20
976.8341607144154
 30
0.0
 10
-75.27150846141677
 20
960.4714282618736
 30
0.0
 10
-63.48770397197739
 20
949.3952367431596
 30
0.0
 10
-51.16741360461805
 20
942.7181466451889
 30
0.0
 10
-41.05600066845727
 20
941.0002896155706
 30
0.0
 10
-36.00000000000023
 20
941.0
 30
0.0
  0
SPLINE
  5
94
330
2
100
AcDbEntity
  8
GEB-KONTUR-A
 48
25.0
100
AcDbSpline
210
0.0
220
0.0
230
1.0
 70
     8
 71
     3
 72
    11
 73
     7
 74
     0
 42
0.0000000001
 43
0.0000000001
 40
-0.6465308888337732
 40
-0.6465308888337732
 40
-0.6465308888337732
 40
-0.6465308888337732
 40
-0.5061071926713142
 40
-0.5061071926713142
 40
-0.5061071926713142
 40
-0.008077072813104
 40
-0.008077072813104
 40
-0.008077072813104
 40
-0.008077072813104
 10
-36.00000000000023
 20
1081.044182537326
 30
0.0
 10
-24.50676177255923
 20
1081.019184800815
 30
0.0
 10
-13.00400540770766
 20
1081.006159671717
 30
0.0
 10
-1.500857970925721
 20
1081.005117503081
 30
0.0
 10
39.29648644635341
 20
1081.001421322271
 30
0.0
 10
80.09856268372955
 20
1081.148683167969
 30
0.0
 10
120.4999999999996
 20
1081.445439892029
 30
0.0
  0
SPLINE
  5
95
330
2
100
AcDbEntity
  8
GEB-KONTUR-A
 48
25.0
100
AcDbSpline
210
0.0
220
0.0
230
1.0
 70
     8
 71
     3
 72
    16
 73
    12
 74
     0
 42
0.0000000001
 43
0.0000000001
 40
1.22865585034437
 40
1.22865585034437
 40
1.22865585034437
 40
1.22865585034437
 40
1.282569549617333
 40
1.282569549617333
 40
1.346884479907265
 40
1.346884479907265
 40
1.422198589229312
 40
1.422198589229312
 40
1.493706937514535
 40
1.493706937514535
 40
1.536940902961468
 40
1.536940902961468
 40
1.536940902961468
 40
1.536940902961468
 10
120.5000000000206
 20
1081.445439892029
 30
0.0
 10
120.6779681303116
 20
1081.446747103919
 30
0.0
 10
120.855732264517
 20
1081.423435999389
 30
0.0
 10
121.2338894507133
 20
1081.318953518953
 30
0.0
 10
121.429147969395
 20
1081.228278551815
 30
0.0
 10
121.8127006075029
 20
1080.965212700922
 30
0.0
 10
121.9898508459444
 20
1080.784401547017
 30
0.0
 10
122.2580706746989
 20
1080.375957364519
 30
0.0
 10
122.3504159866998
 20
1080.155166155176
 30
0.0
 10
122.4307815959632
 20
1079.783989529473
 30
0.0
 10
122.4452825174956
 20
1079.641841920394
 30
0.0
 10
122.4441527957526
 20
1079.5
 30
0.0
  0
SPLINE
  5
96
330
2
100
AcDbEntity
  8
GEB-KONTUR-A
 48
25.0
100
AcDbSpline
210
0.0
220
0.0
230
1.0
 70
     8
 71
     3
 72
     8
 73
     4
 74
     0
 42
0.0000000001
 43
0.0000000001
 40
0.0505810744193914
 40
0.0505810744193914
 40
0.0505810744193914
 40
0.0505810744193914
 40
8.047145290600791
 40
8.047145290600791
 40
8.047145290600791
 40
8.047145290600791
 10
122.4441527957526
 20
1079.5
 30
0.0
 10
122.234284567002
 20
1053.150048976279
 30
0.0
 10
122.127556809798
 20
1026.649664292446
 30
0.0
 10
122.127556809798
 20
1000.0
 30
0.0
  0
SPLINE
  5
97
330
2
100
AcDbEntity
  8
GEB-KONTUR-A
 48
25.0
100
AcDbSpline
210
0.0
220
0.0
230
1.0
 70
     8
 71
     3
 72
    10
 73
     6
 74
     0
 42
0.0000000001
 43
0.0000000001
 40
8.047145290600791
 40
8.047145290600791
 40
8.047145290600791
 40
8.047145290600791
 40
8.193156494088668
 40
8.193156494088668
 40
16.04204957074313
 40
16.04204957074313
 40
16.04204957074313
 40
16.04204957074313
 10
122.127556809798
 20
1000.0
 30
0.0
 10
122.127556809798
 20
999.5133973228135
 30
0.0
 10
122.1275923928159
 20
999.026744875816
 30
0.0
 10
122.1314903144248
 20
972.3771626026916
 30
0.0
 10
122.2381596121403
 20
946.3634207365283
 30
0.0
 10
122.4441527957527
 20
920.5000000000001
 30
0.0
  0
SPLINE
  5
98
330
2
100
AcDbEntity
  8
GEB-KONTUR-A
 48
25.0
100
AcDbSpline
210
0.0
220
0.0
230
1.0
 70
     8
 71
     3
 72
    16
 73
    12
 74
     0
 42
0.0000000001
 43
0.0000000001
 40
0.9203775189775239
 40
0.9203775189775239
 40
0.9203775189775239
 40
0.9203775189775239
 40
0.9681723787163871
 40
0.9681723787163871
 40
1.043991690616283
 40
1.043991690616283
 40
1.11895931288041
 40
1.11895931288041
 40
1.181438927050889
 40
1.181438927050889
 40
1.228669212288642
 40
1.228669212288642
 40
1.228669212288642
 40
1.228669212288642
 10
122.4441527957527
 20
920.5000000000001
 30
0.0
 10
122.445401810919
 20
920.3431802247751
 30
0.0
 10
122.4275440545268
 20
920.186080996998
 30
0.0
 10
122.3316036776362
 20
919.788136835227
 30
0.0
 10
122.2255339693109
 20
919.5571935743826
 30
0.0
 10
121.9311148678124
 20
919.1505250237694
 30
0.0
 10
121.7468822328275
 20
918.9786246502913
 30
0.0
 10
121.3584251336285
 20
918.7365229796688
 30
0.0
 10
121.1655882144509
 20
918.6559802982174
 30
0.0
 10
120.8117464640756
 20
918.5711621517734
 30
0.0
 10
120.6559063034319
 20
918.5534149446581
 30
0.0
 10
120.5000000000207
 20
918.5545601079711
 30
0.0
  0
SPLINE
  5
99
330
2
100
AcDbEntity
  8
GEB-KONTUR-A
 48
25.0
100
AcDbSpline
210
0.0
220
0.0
230
1.0
 70
     8
 71
     3
 72
    11
 73
     7
 74
     0
 42
0.0000000001
 43
0.0000000001
 40
0.0080770728131036
 40
0.0080770728131036
 40
0.0080770728131036
 40
0.0080770728131036
 40
0.5061071926713142
 40
0.5061071926713142
 40
0.5061071926713142
 40
0.6465308888337736
 40
0.6465308888337736
 40
0.6465308888337736
 40
0.6465308888337736
 10
120.4999999999996
 20
918.5545601079711
 30
0.0
 10
80.09856268372955
 20
918.8513168320314
 30
0.0
 10
39.29648644635347
 20
918.9985786777288
 30
0.0
 10
-1.500857970925608
 20
918.994882496919
 30
0.0
 10
-13.00400540770761
 20
918.9938403282823
 30
0.0
 10
-24.506761772559
 20
918.9808151991856
 30
0.0
 10
-36.00000000000023
 20
918.9558174626732
 30
0.0
  0
SPLINE
  5
9A
330
2
100
AcDbEntity
  8
GEB-KONTUR-A
 48
25.0
100
AcDbSpline
210
0.0
220
0.0
230
1.0
 70
     8
 71
     3
 72
    12
 73
     8
 74
     0
 42
0.0000000001
 43
0.0000000001
 40
-4.214999526498232
 40
-4.214999526498232
 40
-4.214999526498232
 40
-4.214999526498232
 40
-3.165272315181026
 40
-3.165272315181026
 40
-2.104602742244455
 40
-2.104602742244455
 40
-0.1348515524981741
 40
-0.1348515524981741
 40
-0.1348515524981741
 40
-0.1348515524981741
 10
-36.00000000000245
 20
939.9017251334601
 30
0.0
 10
-32.51090956612626
 20
939.8943214621734
 30
0.0
 10
-29.04076241464969
 20
940.2822330111128
 30
0.0
 10
-22.20271048247042
 20
941.8308499249747
 30
0.0
 10
-18.87066235768816
 20
942.9916858021087
 30
0.0
 10
-9.774433482163033
 20
947.3008829574389
 30
0.0
 10
-4.490204689528241
 20
951.2413548415995
 30
0.0
 10
-0.0000000000002842
 20
956.0059734264745
 30
0.0
  0
SPLINE
  5
9B
330
2
100
AcDbEntity
  8
GEB-KONTUR-A
 48
25.0
100
AcDbSpline
210
0.0
220
0.0
230
1.0
 70
     8
 71
     3
 72
    12
 73
     8
 74
     0
 42
0.0000000001
 43
0.0000000001
 40
-4.072853635567528
 40
-4.072853635567528
 40
-4.072853635567528
 40
-4.072853635567528
 40
-2.997340856520676
 40
-2.997340856520676
 40
-1.8174010254661
 40
-1.8174010254661
 40
0.0
 40
0.0
 40
0.0
 40
0.0
 10
-0.0000000000002842
 20
956.0059734264745
 30
0.0
 10
2.456169090123978
 20
953.3996982778839
 30
0.0
 10
5.15614312784578
 20
951.0335397903928
 30
0.0
 10
11.28277263088915
 20
946.6899019301235
 30
0.0
 10
14.73164808628513
 20
944.7889440455973
 30
0.0
 10
23.99037209601033
 20
941.0651316109952
 30
0.0
 10
29.94696975920266
 20
939.888880913157
 30
0.0
 10
35.99999999999972
 20
939.9017251334601
 30
0.0
  0
SPLINE
  5
9C
330
2
100
AcDbEntity
  8
GEB-KONTUR-A
 48
25.0
100
AcDbSpline
210
0.0
220
0.0
230
1.0
 70
     8
 71
     3
 72
    28
 73
    24
 74
     0
 42
0.0000000001
 43
0.0000000001
 40
-21.99168530208272
 40
-21.99168530208272
 40
-21.99168530208272
 40
-21.99168530208272
 40
-20.36169340094966
 40
-20.36169340094966
 40
-18.67475267469818
 40
-18.67475267469818
 40
-16.38951735785776
 40
-16.38951735785776
 40
-13.76699735051763
 40
-13.76699735051763
 40
-11.16892434496999
 40
-11.16892434496999
 40
-9.940483357906387
 40
-9.940483357906387
 40
-7.77708025946633
 40
-7.77708025946633
 40
-5.8491638468694
 40
-5.8491638468694
 40
-3.994097628165543
 40
-3.994097628165543
 40
-2.102721963837428
 40
-2.102721963837428
 40
-0.1348514512792463
 40
-0.1348514512792463
 40
-0.1348514512792463
 40
-0.1348514512792463
 10
35.99999999999733
 20
939.9017251334601
 30
0.0
 10
41.41100744674889
 20
939.9132070142604
 30
0.0
 10
46.75228131322393
 20
940.8748374023062
 30
0.0
 10
57.11526958043993
 20
944.6282906052736
 30
0.0
 10
61.99945855829316
 20
947.4383341876169
 30
0.0
 10
72.27412078560047
 20
955.7459306547944
 30
0.0
 10
77.10958964136517
 20
961.7402335961187
 30
0.0
 10
84.89235156563472
 20
976.1311858675885
 30
0.0
 10
87.41381835164446
 20
984.6659557968598
 30
0.0
 10
89.09862981071791
 20
1002.018825565794
 30
0.0
 10
88.29009133621156
 20
1010.802893744697
 30
0.0
 10
84.68603950543201
 20
1023.055163130722
 30
0.0
 10
83.16411838965292
 20
1026.878716701978
 30
0.0
 10
77.96887803277349
 20
1036.933641437718
 30
0.0
 10
73.56039381896812
 20
1042.74190165927
 30
0.0
 10
63.34909878793837
 20
1051.765452942665
 30
0.0
 10
57.83152105910835
 20
1055.118874377306
 30
0.0
 10
45.99825631269908
 20
1059.391880912804
 30
0.0
 10
39.88580620876195
 20
1060.336921666686
 30
0.0
 10
27.45457364693567
 20
1059.752039606831
 30
0.0
 10
21.34646307035723
 20
1058.183786169052
 30
0.0
 10
9.764409270286421
 20
1052.691655432824
 30
0.0
 10
4.485924276483046
 20
1048.754103152645
 30
0.0
 10
-0.0000000000002842
 20
1043.994026573525
 30
0.0
  0
SPLINE
  5
9D
330
2
100
AcDbEntity
  8
GEB-KONTUR-A
 48
25.0
100
AcDbSpline
210
0.0
220
0.0
230
1.0
 70
     8
 71
     3
 72
    12
 73
     8
 74
     0
 42
0.0000000001
 43
0.0000000001
 40
-21.79684827320404
 40
-21.79684827320404
 40
-21.79684827320404
 40
-21.79684827320404
 40
-20.60109348372073
 40
-20.60109348372073
 40
-19.29810116458628
 40
-19.29810116458628
 40
-17.72130001556053
 40
-17.72130001556053
 40
-17.72130001556053
 40
-17.72130001556053
 10
-0.0000000000002842
 20
1043.994026573525
 30
0.0
 10
-2.729341374900855
 20
1046.890168629064
 30
0.0
 10
-5.758828283069306
 20
1049.488867824006
 30
0.0
 10
-12.65097959801784
 20
1054.141551166055
 30
0.0
 10
-16.53108611378042
 20
1056.103161739755
 30
0.0
 10
-25.58881024782545
 20
1059.231493892965
 30
0.0
 10
-30.76740526595813
 20
1060.109378164698
 30
0.0
 10
-36.00000000000023
 20
1060.09827486654
 30
0.0
  0
SPLINE
  5
9E
330
2
100
AcDbEntity
  8
GEB-KONTUR-A
 48
25.0
100
AcDbSpline
210
0.0
220
0.0
230
1.0
 70
     8
 71
     3
 72
    24
 73
    20
 74
     0
 42
0.0000000001
 43
0.0000000001
 40
-17.72130001556053
 40
-17.72130001556053
 40
-17.72130001556053
 40
-17.72130001556053
 40
-17.51543962293725
 40
-17.51543962293725
 40
-15.634086779154
 40
-15.634086779154
 40
-13.54743267677854
 40
-13.54743267677854
 40
-11.13380593237904
 40
-11.13380593237904
 40
-8.491029849381456
 40
-8.491029849381456
 40
-5.988624644142387
 40
-5.988624644142387
 40
-3.793609924360622
 40
-3.793609924360622
 40
-1.849819320506244
 40
-1.849819320506244
 40
0.0
 40
0.0
 40
0.0
 40
0.0
 10
-36.00000000000023
 20
1060.09827486654
 30
0.0
 10
-36.68314511760366
 20
1060.096825267572
 30
0.0
 10
-37.36720997924744
 20
1060.080219308371
 30
0.0
 10
-44.30851921026248
 20
1059.756884073517
 30
0.0
 10
-50.40329084375589
 20
1058.199796201916
 30
0.0
 10
-62.3618491401001
 20
1052.545466944301
 30
0.0
 10
-67.9400521810474
 20
1048.281956020664
 30
0.0
 10
-78.00863979537599
 20
1037.122730488606
 30
0.0
 10
-82.09653698514745
 20
1030.031820095581
 30
0.0
 10
-87.71987126397874
 20
1014.068032409729
 30
0.0
 10
-88.95802945193247
 20
1005.147548565649
 30
0.0
 10
-88.02896050696501
 20
987.9342043793924
 30
0.0
 10
-86.04053278334635
 20
979.6597791459177
 30
0.0
 10
-79.46789150382574
 20
965.3824663331835
 30
0.0
 10
-75.2521136595555
 20
959.2729014078955
 30
0.0
 10
-65.32037399729745
 20
949.6586012851871
 30
0.0
 10
-59.90363088596547
 20
946.0094876778846
 30
0.0
 10
-48.21971612668807
 20
941.1592796646774
 30
0.0
 10
-42.16100251410369
 20
939.9147984653996
 30
0.0
 10
-35.99999999999795
 20
939.9017251334601
 30
0.0
  0
SPLINE
  5
9F
330
2
100
AcDbEntity
  8
GEB-KONTUR-A
 48
25.0
100
AcDbSpline
210
0.0
220
0.0
230
1.0
 70
     8
 71
     3
 72
     8
 73
     4
 74
     0
 42
0.0000000001
 43
0.0000000001
 40
0.6465308888337736
 40
0.6465308888337736
 40
0.6465308888337736
 40
0.6465308888337736
 40
0.9919229271868962
 40
0.9919229271868962
 40
0.9919229271868962
 40
0.9919229271868962
 10
-36.00000000000023
 20
918.9558174626732
 30
0.0
 10
-64.26925289063302
 20
918.8943319769318
 30
0.0
 10
-92.48094163126712
 20
918.7603657556183
 30
0.0
 10
-120.5000000000001
 20
918.5545601079711
 30
0.0
  0
SPLINE
  5
A0
330
2
100
AcDbEntity
  8
GEB-KONTUR-A
 48
25.0
100
AcDbSpline
210
0.0
220
0.0
230
1.0
 70
     8
 71
     3
 72
    16
 73
    12
 74
     0
 42
0.0000000001
 43
0.0000000001
 40
1.228655849655486
 40
1.228655849655486
 40
1.228655849655486
 40
1.228655849655486
 40
1.282569548926318
 40
1.282569548926318
 40
1.346884479208838
 40
1.346884479208838
 40
1.42219858851904
 40
1.42219858851904
 40
1.493706936788338
 40
1.493706936788338
 40
1.536940902229798
 40
1.536940902229798
 40
1.536940902229798
 40
1.536940902229798
 10
-120.49999999998
 20
918.5545601079713
 30
0.0
 10
-120.6779681302639
 20
918.5532528960774
 30
0.0
 10
-120.8557322644687
 20
918.5765640006016
 30
0.0
 10
-121.2338894506608
 20
918.6810464810271
 30
0.0
 10
-121.4291479693418
 20
918.7717214481558
 30
0.0
 10
-121.8127006074531
 20
919.0347872990342
 30
0.0
 10
-121.9898508459022
 20
919.2155984529319
 30
0.0
 10
-122.2580706746689
 20
919.6240426354215
 30
0.0
 10
-122.3504159866788
 20
919.8448338447589
 30
0.0
 10
-122.4307815959593
 20
920.2160104704837
 30
0.0
 10
-122.4452825174964
 20
920.3581580795836
 30
0.0
 10
-122.4441527957534
 20
920.5000000000001
 30
0.0
  0
SPLINE
  5
A1
330
2
100
AcDbEntity
  8
GEB-KONTUR-A
 48
25.0
100
AcDbSpline
210
0.0
220
0.0
230
1.0
 70
     8
 71
     3
 72
     8
 73
     4
 74
     0
 42
0.0000000001
 43
0.0000000001
 40
0.0505810744193908
 40
0.0505810744193908
 40
0.0505810744193908
 40
0.0505810744193908
 40
8.047145290600967
 40
8.047145290600967
 40
8.047145290600967
 40
8.047145290600967
 10
-122.4441527957534
 20
920.5000000000001
 30
0.0
 10
-122.2342845670027
 20
946.8499510237219
 30
0.0
 10
-122.1275568097987
 20
973.3503357075539
 30
0.0
 10
-122.1275568097987
 20
1000.0
 30
0.0
  0
SPLINE
  5
A2
330
2
100
AcDbEntity
  8
GEB-KONTUR-A
 48
25.0
100
AcDbSpline
210
0.0
220
0.0
230
1.0
 70
     8
 71
     3
 72
    10
 73
     6
 74
     0
 42
0.0000000001
 43
0.0000000001
 40
8.047145290600967
 40
8.047145290600967
 40
8.047145290600967
 40
8.047145290600967
 40
8.193156494088862
 40
8.193156494088862
 40
16.04204957074349
 40
16.04204957074349
 40
16.04204957074349
 40
16.04204957074349
 10
-122.1275568097987
 20
1000.0
 30
0.0
 10
-122.1275568097987
 20
1000.486602677186
 30
0.0
 10
-122.1275923928166
 20
1000.973255124184
 30
0.0
 10
-122.1314903144255
 20
1027.622837397308
 30
0.0
 10
-122.238159612141
 20
1053.63657926347
 30
0.0
 10
-122.4441527957535
 20
1079.5
 30
0.0
  0
SPLINE
  5
A3
330
2
100
AcDbEntity
  8
GEB-KONTUR-A
 48
25.0
100
AcDbSpline
210
0.0
220
0.0
230
1.0
 70
     8
 71
     3
 72
    16
 73
    12
 74
     0
 42
0.0000000001
 43
0.0000000001
 40
0.9203775189729357
 40
0.9203775189729357
 40
0.9203775189729357
 40
0.9203775189729357
 40
0.9681723787184337
 40
0.9681723787184337
 40
1.043991690618133
 40
1.043991690618133
 40
1.118959312882259
 40
1.118959312882259
 40
1.181438927051347
 40
1.181438927051347
 40
1.228669212288031
 40
1.228669212288031
 40
1.228669212288031
 40
1.228669212288031
 10
-122.4441527957535
 20
1079.5
 30
0.0
 10
-122.4454018109199
 20
1079.656819775247
 30
0.0
 10
-122.4275440545224
 20
1079.813919003046
 30
0.0
 10
-122.3316036776131
 20
1080.211863164834
 30
0.0
 10
-122.2255339692802
 20
1080.442806425675
 30
0.0
 10
-121.9311148677679
 20
1080.849474976279
 30
0.0
 10
-121.7468822327772
 20
1081.02137534975
 30
0.0
 10
-121.3584251335743
 20
1081.263477020357
 30
0.0
 10
-121.1655882143988
 20
1081.344019701801
 30
0.0
 10
-120.8117464640285
 20
1081.428837848234
 30
0.0
 10
-120.6559063033876
 20
1081.446585055344
 30
0.0
 10
-120.49999999998
 20
1081.445439892029
 30
0.0
  0
SPLINE
  5
A4
330
2
100
AcDbEntity
  8
GEB-KONTUR-A
 48
25.0
100
AcDbSpline
210
0.0
220
0.0
230
1.0
 70
     8
 71
     3
 72
     8
 73
     4
 74
     0
 42
0.0000000001
 43
0.0000000001
 40
-0.991922927186896
 40
-0.991922927186896
 40
-0.991922927186896
 40
-0.991922927186896
 40
-0.6465308888337732
 40
-0.6465308888337732
 40
-0.6465308888337732
 40
-0.6465308888337732
 10
-120.4999999999992
 20
1081.445439892029
 30
0.0
 10
-92.48094163126609
 20
1081.239634244381
 30
0.0
 10
-64.26925289063269
 20
1081.105668023068
 30
0.0
 10
-36.00000000000023
 20
1081.044182537326
 30
0.0
  0
LINE
  5
A5
330
2
100
AcDbEntity
  8
GEB-KONTUR-A
 48
25.0
100
AcDbLine
 10
-85.47778154576922
 20
1010.0
 30
0.0
 11
-85.47778154576922
 21
1008.288710925191
 31
0.0
  0
ARC
  5
A6
330
2
100
AcDbEntity
  8
GEB-KONTUR-A
 48
25.0
100
AcDbCircle
 10
-95.50000000000109
 20
1010.0
 30
0.0
 40
10.02221845423117
100
AcDbArc
 50
0.0
 51
20.70196606060932
  0
ARC
  5
A7
330
2
100
AcDbEntity
  8
GEB-KONTUR-A
 48
25.0
100
AcDbCircle
 10
95.50000000000062
 20
1000.0
 30
0.0
 40
10.02221845423121
100
AcDbArc
 50
145.3148177992998
 51
180.0
  0
ARC
  5
A8
330
2
100
AcDbEntity
  8
GEB-KONTUR-A
 48
25.0
100
AcDbCircle
 10
-95.50000000000148
 20
1000.0
 30
0.0
 40
10.02221845423196
100
AcDbArc
 50
325.3148177992998
 51
342.672960827381
  0
LINE
  5
A9
330
2
100
AcDbEntity
  8
GEB-KONTUR-A
 48
25.0
100
AcDbLine
 10
85.47778154576974
 20
990.0
 30
0.0
 11
85.47778154577025
 21
999.9999999999998
 31
0.0
  0
ARC
  5
AA
330
2
100
AcDbEntity
  8
GEB-KONTUR-A
 48
25.0
100
AcDbCircle
 10
95.5000000000008
 20
989.9999999999998
 30
0.0
 40
10.02221845423103
100
AcDbArc
 50
180.0
 51
200.7019660606033
  0
LINE
  5
AB
330
2
100
AcDbEntity
  8
GEB-KONTUR-A
 48
25.0
100
AcDbLine
 10
-59.96224164464621
 20
1050.466672318653
 30
0.0
 11
-62.67813015037342
 21
1050.466672318653
 31
0.0
  0
LINE
  5
AC
330
2
100
AcDbEntity
  8
GEB-KONTUR-A
 48
25.0
100
AcDbLine
 10
-9.321869849627148
 20
1050.466672318653
 30
0.0
 11
-12.03775835535441
 21
1050.466672318653
 31
0.0
  0
LINE
  5
AD
330
2
100
AcDbEntity
  8
GEB-KONTUR-A
 48
25.0
100
AcDbLine
 10
62.67813015037285
 20
1050.466672318653
 30
0.0
 11
9.321869849626409
 21
1050.466672318653
 31
0.0
  0
LINE
  5
AE
330
2
100
AcDbEntity
  8
GEB-KONTUR-A
 48
25.0
100
AcDbLine
 10
9.321869849626239
 20
949.5333276813466
 30
0.0
 11
62.67813015037297
 21
949.5333276813466
 31
0.0
  0
LINE
  5
AF
330
2
100
AcDbEntity
  8
GEB-KONTUR-A
 48
25.0
100
AcDbLine
 10
-12.03775835535401
 20
949.5333276813466
 30
0.0
 11
-9.321869849626864
 21
949.5333276813466
 31
0.0
  0
LINE
  5
B0
330
2
100
AcDbEntity
  8
GEB-KONTUR-A
 48
25.0
100
AcDbLine
 10
-62.6781301503737
 20
949.5333276813466
 30
0.0
 11
-59.96224164464644
 21
949.5333276813466
 31
0.0
  0
LINE
  5
B1
330
2
100
AcDbEntity
  8
GEB-KONTUR-A
 48
25.0
100
AcDbLine
 10
7.314191479813814
 20
1049.0
 30
0.0
 11
64.68580852018551
 21
1049.0
 31
0.0
  0
LINE
  5
B2
330
2
100
AcDbEntity
  8
GEB-KONTUR-A
 48
25.0
100
AcDbLine
 10
-9.837067159425771
 20
1049.0
 30
0.0
 11
-7.314191479814496
 21
1049.0
 31
0.0
  0
LINE
  5
B3
330
2
100
AcDbEntity
  8
GEB-KONTUR-A
 48
25.0
100
AcDbLine
 10
-64.68580852018613
 20
1049.0
 30
0.0
 11
-62.16293284057491
 21
1049.0
 31
0.0
  0
LINE
  5
B4
330
2
100
AcDbEntity
  8
GEB-KONTUR-A
 48
25.0
100
AcDbLine
 10
-62.16293284057485
 20
951.0
 30
0.0
 11
-64.68580852018607
 21
951.0
 31
0.0
  0
LINE
  5
B5
330
2
100
AcDbEntity
  8
GEB-KONTUR-A
 48
25.0
100
AcDbLine
 10
-7.314191479814439
 20
951.0
 30
0.0
 11
-9.837067159425657
 21
951.0
 31
0.0
  0
LINE
  5
B6
330
2
100
AcDbEntity
  8
GEB-KONTUR-A
 48
25.0
100
AcDbLine
 10
64.68580852018539
 20
951.0
 30
0.0
 11
7.314191479813814
 21
951.0
 31
0.0
  0
ARC
  5
B7
330
2
100
AcDbEntity
  8
GEB-KONTUR-A
 48
25.0
100
AcDbCircle
 10
-95.49999999999995
 20
999.9999999999991
 30
0.0
 40
10.99999999999899
100
AcDbArc
 50
319.6031804244237
 51
331.8999830523369
  0
ARC
  5
B8
330
2
100
AcDbEntity
  8
GEB-KONTUR-A
 48
25.0
100
AcDbCircle
 10
-95.50000000000096
 20
1009.999999999999
 30
0.0
 40
11.00000000000009
100
AcDbArc
 50
13.34062203260304
 51
27.8633543776232
  0
LINE
  5
B9
330
2
100
AcDbEntity
  8
GEB-KONTUR-A
 48
25.0
100
AcDbLine
 10
-84.38157806077885
 20
985.4888907728843
 30
0.0
 11
-85.91803650037576
 21
985.4888907728843
 31
0.0
  0
LINE
  5
BA
330
2
100
AcDbEntity
  8
GEB-KONTUR-A
 48
25.0
100
AcDbLine
 10
-85.80780642785709
 20
985.0
 30
0.0
 11
-84.26870285037972
 21
985.0
 31
0.0
  0
LINE
  5
BB
330
2
100
AcDbEntity
  8
GEB-KONTUR-A
 48
25.0
100
AcDbLine
 10
-82.84540057246266
 20
1024.511109227115
 30
0.0
 11
-81.22955960398957
 21
1024.511109227115
 31
0.0
  0
LINE
  5
BC
330
2
100
AcDbEntity
  8
GEB-KONTUR-A
 48
25.0
100
AcDbLine
 10
-81.02677212436544
 20
1025.0
 30
0.0
 11
-82.64813861818334
 21
1025.0
 31
0.0
  0
LINE
  5
BD
330
2
100
AcDbEntity
  8
GEB-KONTUR-A
 48
25.0
100
AcDbLine
 10
84.50000000000125
 20
999.9999999999998
 30
0.0
 11
84.50000000000079
 21
990.0
 31
0.0
  0
ARC
  5
BE
330
2
100
AcDbEntity
  8
GEB-KONTUR-A
 48
25.0
100
AcDbCircle
 10
95.5000000000008
 20
989.9999999999998
 30
0.0
 40
10.99999999999998
100
AcDbArc
 50
180.0
 51
207.8633543776232
  0
ARC
  5
BF
330
2
100
AcDbEntity
  8
GEB-KONTUR-A
 48
25.0
100
AcDbCircle
 10
95.50000000000039
 20
1000.0
 30
0.0
 40
10.99999999999989
100
AcDbArc
 50
139.6031804244287
 51
180.0
  0
LINE
  5
C0
330
2
100
AcDbEntity
  8
GEB-KONTUR-A
 48
25.0
100
AcDbLine
 10
78.00000000000046
 20
1014.511109227115
 30
0.0
 11
85.91803650037524
 21
1014.511109227115
 31
0.0
  0
LINE
  5
C1
330
2
100
AcDbEntity
  8
GEB-KONTUR-A
 48
25.0
100
AcDbLine
 10
85.8078064278564
 20
1015.0
 30
0.0
 11
78.00000000000046
 21
1014.999999999999
 31
0.0
  0
ARC
  5
C2
330
2
100
AcDbEntity
  8
GEB-KONTUR-A
 48
25.0
100
AcDbCircle
 10
78.00000000000079
 20
999.9999999999996
 30
0.0
 40
14.51110922711553
100
AcDbArc
 50
90.00000000000325
 51
180.0
  0
ARC
  5
C3
330
2
100
AcDbEntity
  8
GEB-KONTUR-A
 48
25.0
100
AcDbCircle
 10
78.00000000000079
 20
999.9999999999996
 30
0.0
 40
14.99999999999999
100
AcDbArc
 50
90.0
 51
180.0
  0
LINE
  5
C4
330
2
100
AcDbEntity
  8
GEB-KONTUR-A
 48
25.0
100
AcDbLine
 10
63.48889077288532
 20
990.0
 30
0.0
 11
63.48889077288532
 21
999.9999999999996
 31
0.0
  0
LINE
  5
C5
330
2
100
AcDbEntity
  8
GEB-KONTUR-A
 48
25.0
100
AcDbLine
 10
63.00000000000085
 20
999.9999999999996
 30
0.0
 11
63.00000000000085
 21
990.0
 31
0.0
  0
ARC
  5
C6
330
2
100
AcDbEntity
  8
GEB-KONTUR-A
 48
25.0
100
AcDbCircle
 10
78.00000000000079
 20
989.9999999999998
 30
0.0
 40
14.51110922711552
100
AcDbArc
 50
180.0
 51
270.0
  0
ARC
  5
C7
330
2
100
AcDbEntity
  8
GEB-KONTUR-A
 48
25.0
100
AcDbCircle
 10
78.00000000000079
 20
990.0
 30
0.0
 40
15.0
100
AcDbArc
 50
180.0
 51
270.0
  0
LINE
  5
C8
330
2
100
AcDbEntity
  8
GEB-KONTUR-A
 48
25.0
100
AcDbLine
 10
82.84540057246204
 20
975.4888907728844
 30
0.0
 11
78.00000000000074
 21
975.4888907728844
 31
0.0
  0
LINE
  5
C9
330
2
100
AcDbEntity
  8
GEB-KONTUR-A
 48
25.0
100
AcDbLine
 10
78.00000000000074
 20
975.0
 30
0.0
 11
82.64813861818272
 21
975.0
 31
0.0
  0
LINE
  5
CA
330
2
100
AcDbEntity
  8
GEB-KONTUR-A
 48
25.0
100
AcDbLine
 10
-64.00000062705055
 20
235.3405627640318
 30
0.0
 11
-64.00000062705055
 21
248.3405627640318
 31
0.0
  0
ARC
  5
CB
330
2
100
AcDbEntity
  8
GEB-KONTUR-A
 48
25.0
100
AcDbCircle
 10
-52.00000062705061
 20
248.3405627640318
 30
0.0
 40
11.99999999999998
100
AcDbArc
 50
90.0
 51
180.0
  0
LINE
  5
CC
330
2
100
AcDbEntity
  8
GEB-KONTUR-A
 48
25.0
100
AcDbLine
 10
-52.0000006270505
 20
260.3405627640317
 30
0.0
 11
-54.55313578082803
 21
260.3405627640317
 31
0.0
  0
ARC
  5
CD
330
2
100
AcDbEntity
  8
GEB-KONTUR-A
 48
25.0
100
AcDbCircle
 10
-54.55313578082803
 20
265.3405627640317
 30
0.0
 40
4.999999999999929
100
AcDbArc
 50
270.0
 51
327.0640632035514
  0
LINE
  5
CE
330
2
100
AcDbEntity
  8
GEB-KONTUR-A
 48
25.0
100
AcDbLine
 10
-64.00000062705061
 20
212.3405627640318
 30
0.0
 11
-64.00000062705055
 21
235.3405627640318
 31
0.0
  0
LINE
  5
CF
330
2
100
AcDbEntity
  8
GEB-KONTUR-A
 48
25.0
100
AcDbLine
 10
-64.00000062705061
 20
196.2162071110497
 30
0.0
 11
-64.00000062705061
 21
212.3405627640318
 31
0.0
  0
ARC
  5
D0
330
2
100
AcDbEntity
  8
GEB-KONTUR-A
 48
25.0
100
AcDbCircle
 10
54.55313578082905
 20
265.3405627640316
 30
0.0
 40
4.999999999999957
100
AcDbArc
 50
212.9359367964486
 51
270.0
  0
LINE
  5
D1
330
2
100
AcDbEntity
  8
GEB-KONTUR-A
 48
25.0
100
AcDbLine
 10
54.55313578082905
 20
260.3405627640317
 30
0.0
 11
52.00000062705157
 21
260.3405627640317
 31
0.0
  0
ARC
  5
D2
330
2
100
AcDbEntity
  8
GEB-KONTUR-A
 48
25.0
100
AcDbCircle
 10
51.99999937294927
 20
248.3405627640317
 30
0.0
 40
11.99999999999999
100
AcDbArc
 50
0.0
 51
89.99999401210068
  0
LINE
  5
D3
330
2
100
AcDbEntity
  8
GEB-KONTUR-A
 48
25.0
100
AcDbLine
 10
63.99999937294921
 20
248.3405627640317
 30
0.0
 11
63.99999937294921
 21
235.3405627640317
 31
0.0
  0
LINE
  5
D4
330
2
100
AcDbEntity
  8
GEB-KONTUR-A
 48
25.0
100
AcDbLine
 10
63.99999937294921
 20
220.2304121723181
 30
0.0
 11
63.99999937294916
 21
212.3405627640317
 31
0.0
  0
LINE
  5
D5
330
2
100
AcDbEntity
  8
GEB-KONTUR-A
 48
25.0
100
AcDbLine
 10
63.99999937294921
 20
235.3405627640317
 30
0.0
 11
63.99999937294921
 21
221.5000000000002
 31
0.0
  0
LINE
  5
D6
330
2
100
AcDbEntity
  8
GEB-KONTUR-A
 48
25.0
100
AcDbLine
 10
63.99999937294916
 20
212.3405627640317
 30
0.0
 11
63.99999937294916
 21
196.2162071110496
 31
0.0
  0
ARC
  5
D7
330
2
100
AcDbEntity
  8
GEB-KONTUR-A
 48
25.0
100
AcDbCircle
 10
0.0000000000005116
 20
229.9999999999999
 30
0.0
 40
59.99999999999982
100
AcDbArc
 50
47.29210971719584
 51
90.00000062482419
  0
ARC
  5
D8
330
2
100
AcDbEntity
  8
GEB-KONTUR-A
 48
25.0
100
AcDbCircle
 10
0.0000000000005116
 20
229.9999999999999
 30
0.0
 40
59.99999999999996
100
AcDbArc
 50
90.00000062482419
 51
132.7078902828041
  0
ARC
  5
D9
330
2
100
AcDbEntity
  8
GEB-KONTUR-A
 48
25.0
100
AcDbCircle
 10
0.0000000000003411
 20
230.0
 30
0.0
 40
59.99999999999971
100
AcDbArc
 50
132.7078902828041
 51
147.0640632035514
  0
ARC
  5
DA
330
2
100
AcDbEntity
  8
GEB-KONTUR-A
 48
25.0
100
AcDbCircle
 10
0.0000000000003979
 20
229.9999999999998
 30
0.0
 40
59.99999999999994
100
AcDbArc
 50
32.93593679644859
 51
47.29210971719584
  0
ARC
  5
DB
330
2
100
AcDbEntity
  8
GEB-KONTUR-A
 48
25.0
100
AcDbCircle
 10
-0.0000006270505537
 20
287.4999999999998
 30
0.0
 40
2.499999999999996
100
AcDbArc
 50
322.1270181403177
 51
217.8729831093294
  0
ARC
  5
DC
330
2
100
AcDbEntity
  8
GEB-KONTUR-A
 48
25.0
100
AcDbCircle
 10
-38.99999999999943
 20
272.2522188766458
 30
0.0
 40
2.499999999999996
100
AcDbArc
 50
4.834907798297163
 51
260.5808727673076
  0
ARC
  5
DD
330
2
100
AcDbEntity
  8
GEB-KONTUR-A
 48
25.0
100
AcDbCircle
 10
39.00000000000046
 20
272.2522188766458
 30
0.0
 40
2.499999999999996
100
AcDbArc
 50
279.4191272326924
 51
175.1650922017093
  0
ARC
  5
DE
330
2
100
AcDbEntity
  8
GEB-KONTUR-A
 48
25.0
100
AcDbCircle
 10
61.49999937294921
 20
235.3405627640317
 30
0.0
 40
2.499999999999991
100
AcDbArc
 50
233.1301023541534
 51
126.869897645844
  0
ARC
  5
DF
330
2
100
AcDbEntity
  8
GEB-KONTUR-A
 48
25.0
100
AcDbCircle
 10
61.49999937294921
 20
212.3405627640317
 30
0.0
 40
2.499999999999991
100
AcDbArc
 50
262.0180914814766
 51
62.12018827214984
  0
ARC
  5
E0
330
2
100
AcDbEntity
  8
GEB-KONTUR-A
 48
25.0
100
AcDbCircle
 10
-61.50000062705055
 20
235.3405627640317
 30
0.0
 40
2.499999999999993
100
AcDbArc
 50
53.13010235415338
 51
306.869897645844
  0
ARC
  5
E1
330
2
100
AcDbEntity
  8
GEB-KONTUR-A
 48
25.0
100
AcDbCircle
 10
-61.50000062705061
 20
212.3405627640318
 30
0.0
 40
2.500000000000003
100
AcDbArc
 50
112.8443960159275
 51
282.8947343312536
  0
ARC
  5
E2
330
2
100
AcDbEntity
  8
GEB-KONTUR-A
 48
25.0
100
AcDbCircle
 10
-63.63957483839977
 20
193.8406426387125
 30
0.0
 40
1.500079874680785
100
AcDbArc
 50
149.163812140579
 51
329.9999999999995
  0
ARC
  5
E3
330
2
100
AcDbEntity
  8
GEB-KONTUR-A
 48
25.0
100
AcDbCircle
 10
54.55313578082905
 20
265.3405627640317
 30
0.0
 40
11.64749652245648
100
AcDbArc
 50
257.3379244312138
 51
269.9999998700371
  0
LINE
  5
E4
330
2
100
AcDbEntity
  8
GEB-KONTUR-A
 48
25.0
100
AcDbLine
 10
51.99999937294927
 20
253.6930662415752
 30
0.0
 11
54.55313575440908
 21
253.6930662415752
 31
0.0
  0
ARC
  5
E5
330
2
100
AcDbEntity
  8
GEB-KONTUR-A
 48
25.0
100
AcDbCircle
 10
51.99999937294927
 20
248.3405627640317
 30
0.0
 40
5.352503477543509
100
AcDbArc
 50
20.90998083432836
 51
90.0
  0
LINE
  5
E6
330
2
100
AcDbEntity
  8
GEB-KONTUR-A
 48
25.0
100
AcDbLine
 10
56.99999937294916
 20
222.5000000000002
 30
0.0
 11
56.99999937294927
 21
250.2508751670473
 31
0.0
  0
LINE
  5
E7
330
2
100
AcDbEntity
  8
GEB-KONTUR-A
 48
25.0
100
AcDbLine
 10
62.34046630511898
 20
193.0906027013721
 30
0.0
 11
57.44265961994677
 21
201.5738527257408
 31
0.0
  0
ARC
  5
E8
330
2
100
AcDbEntity
  8
GEB-KONTUR-A
 48
25.0
100
AcDbCircle
 10
63.63957358429826
 20
193.8406426387124
 30
0.0
 40
1.500079874680764
100
AcDbArc
 50
210.0000000000005
 51
30.83618785942101
  0
ARC
  5
E9
330
2
100
AcDbEntity
  8
GEB-KONTUR-A
 48
25.0
100
AcDbCircle
 10
-52.00000062705061
 20
248.3405627640318
 30
0.0
 40
7.999999999999992
100
AcDbArc
 50
90.0
 51
180.0
  0
LINE
  5
EA
330
2
100
AcDbEntity
  8
GEB-KONTUR-A
 48
25.0
100
AcDbLine
 10
-60.00000062705055
 20
237.3405627640317
 30
0.0
 11
-60.00000062705055
 21
248.3405627259472
 31
0.0
  0
ARC
  5
EB
330
2
100
AcDbEntity
  8
GEB-KONTUR-A
 48
25.0
100
AcDbCircle
 10
0.0000000000003979
 20
229.9999999999999
 30
0.0
 40
55.9999999999999
100
AcDbArc
 50
37.37846544574043
 51
142.6215366678605
  0
LINE
  5
EC
330
2
100
AcDbEntity
  8
GEB-KONTUR-A
 48
25.0
100
AcDbLine
 10
-64.92759790280752
 20
194.6095615004763
 30
0.0
 11
-60.00000062705061
 21
203.1444103413252
 31
0.0
  0
LINE
  5
ED
330
2
100
AcDbEntity
  8
GEB-KONTUR-A
 48
25.0
100
AcDbLine
 10
59.99999937294916
 20
203.144410341325
 30
0.0
 11
64.92759664870601
 21
194.6095615004761
 31
0.0
  0
LINE
  5
EE
330
2
100
AcDbEntity
  8
GEB-KONTUR-A
 48
25.0
100
AcDbLine
 10
-57.32559206350311
 20
201.7766218535869
 30
0.0
 11
-62.34046755922048
 21
193.0906027013721
 31
0.0
  0
LINE
  5
EF
330
2
100
AcDbEntity
  8
GEB-KONTUR-A
 48
25.0
100
AcDbLine
 10
-57.0000006270505
 20
250.2508751670475
 30
0.0
 11
-57.00000062705061
 21
222.5000000000002
 31
0.0
  0
ARC
  5
F0
330
2
100
AcDbEntity
  8
GEB-KONTUR-A
 48
25.0
100
AcDbCircle
 10
-52.0000006270505
 20
248.3405627640318
 30
0.0
 40
5.352503477543546
100
AcDbArc
 50
90.0
 51
159.0900191656716
  0
ARC
  5
F1
330
2
100
AcDbEntity
  8
GEB-KONTUR-A
 48
25.0
100
AcDbCircle
 10
-54.55313578082797
 20
265.3405627640312
 30
0.0
 40
11.64749652245594
100
AcDbArc
 50
269.9999996273045
 51
282.6620692458964
  0
LINE
  5
F2
330
2
100
AcDbEntity
  8
GEB-KONTUR-A
 48
25.0
100
AcDbLine
 10
-54.55313585659195
 20
253.6930662415752
 30
0.0
 11
-52.0000006270505
 21
253.6930662415752
 31
0.0
  0
LINE
  5
F3
330
2
100
AcDbEntity
  8
GEB-KONTUR-A
 48
25.0
100
AcDbLine
 10
-60.00000062705061
 20
221.5000000000002
 30
0.0
 11
-60.00000062705055
 21
233.3405627640318
 31
0.0
  0
LINE
  5
F4
330
2
100
AcDbEntity
  8
GEB-KONTUR-A
 48
25.0
100
AcDbLine
 10
-60.00000062705061
 20
203.1444103413252
 30
0.0
 11
-60.00000062705061
 21
207.4763775961876
 31
0.0
  0
LINE
  5
F5
330
2
100
AcDbEntity
  8
GEB-KONTUR-A
 48
25.0
100
AcDbLine
 10
59.99999937294927
 20
248.340562725947
 30
0.0
 11
59.99999937294922
 21
237.3405627640316
 31
0.0
  0
LINE
  5
F6
330
2
100
AcDbEntity
  8
GEB-KONTUR-A
 48
25.0
100
AcDbLine
 10
59.99999937294916
 20
206.9364703784386
 30
0.0
 11
59.99999937294916
 21
203.144410341325
 31
0.0
  0
LINE
  5
F7
330
2
100
AcDbEntity
  8
GEB-KONTUR-A
 48
25.0
100
AcDbLine
 10
59.99999937294922
 20
233.3405627640317
 30
0.0
 11
59.99999937294922
 21
221.5000000000002
 31
0.0
  0
ARC
  5
F8
330
2
100
AcDbEntity
  8
GEB-KONTUR-A
 48
25.0
100
AcDbCircle
 10
51.99999937294927
 20
248.3405627640317
 30
0.0
 40
8.000000000000003
100
AcDbArc
 50
0.0
 51
90.0
  0
LINE
  5
F9
330
2
100
AcDbEntity
  8
GEB-KONTUR-A
 48
25.0
100
AcDbLine
 10
-52.0000006270505
 20
256.3405627640318
 30
0.0
 11
-52.0000006270505
 21
253.9763348480146
 31
0.0
  0
ARC
  5
FA
330
2
100
AcDbEntity
  8
GEB-KONTUR-A
 48
25.0
100
AcDbCircle
 10
-54.55313578082803
 20
265.3405627640317
 30
0.0
 40
8.99999999999998
100
AcDbArc
 50
286.4800625928338
 51
327.0640632035514
  0
ARC
  5
FB
330
2
100
AcDbEntity
  8
GEB-KONTUR-A
 48
25.0
100
AcDbCircle
 10
0.0000000000003979
 20
229.9999999999999
 30
0.0
 40
55.9999999999999
100
AcDbArc
 50
142.6215366678605
 51
147.0640632035514
  0
LINE
  5
FC
330
2
100
AcDbEntity
  8
GEB-KONTUR-A
 48
25.0
100
AcDbLine
 10
-44.5000006270505
 20
263.996322509831
 30
0.0
 11
-44.5000006270505
 21
263.1662470622242
 31
0.0
  0
ARC
  5
FD
330
2
100
AcDbEntity
  8
GEB-KONTUR-A
 48
25.0
100
AcDbCircle
 10
-54.55313578082803
 20
265.3405627640317
 30
0.0
 40
11.64749652245643
100
AcDbArc
 50
282.66206919449
 51
294.8023385531002
  0
ARC
  5
FE
330
2
100
AcDbEntity
  8
GEB-KONTUR-A
 48
25.0
100
AcDbCircle
 10
-54.55313578082803
 20
265.3405627640317
 30
0.0
 40
8.99999999999998
100
AcDbArc
 50
270.0
 51
286.4800625928338
  0
LINE
  5
FF
330
2
100
AcDbEntity
  8
GEB-KONTUR-A
 48
25.0
100
AcDbLine
 10
-52.0000006270505
 20
256.7102962046174
 30
0.0
 11
-52.0000006270505
 21
256.3405627640318
 31
0.0
  0
LINE
  5
100
330
2
100
AcDbEntity
  8
GEB-KONTUR-A
 48
25.0
100
AcDbLine
 10
-52.0000006270505
 20
256.3405627640318
 30
0.0
 11
-54.55313578082803
 21
256.3405627640318
 31
0.0
  0
LINE
  5
101
330
2
100
AcDbEntity
  8
GEB-KONTUR-A
 48
25.0
100
AcDbLine
 10
51.99999937294927
 20
256.3405627640316
 30
0.0
 11
51.99999937294927
 21
253.9763351297665
 31
0.0
  0
ARC
  5
102
330
2
100
AcDbEntity
  8
GEB-KONTUR-A
 48
25.0
100
AcDbCircle
 10
54.55313578082905
 20
265.3405627640317
 30
0.0
 40
11.64749652245643
100
AcDbArc
 50
245.197661371049
 51
257.3379244312138
  0
LINE
  5
103
330
2
100
AcDbEntity
  8
GEB-KONTUR-A
 48
25.0
100
AcDbLine
 10
44.49999937294933
 20
263.1662487448843
 30
0.0
 11
44.49999937294933
 21
263.9963241514069
 31
0.0
  0
ARC
  5
104
330
2
100
AcDbEntity
  8
GEB-KONTUR-A
 48
25.0
100
AcDbCircle
 10
0.0000000000003979
 20
229.9999999999999
 30
0.0
 40
55.9999999999999
100
AcDbArc
 50
32.93593679644859
 51
37.37846544574043
  0
ARC
  5
105
330
2
100
AcDbEntity
  8
GEB-KONTUR-A
 48
25.0
100
AcDbCircle
 10
54.55313578082905
 20
265.3405627640317
 30
0.0
 40
8.99999999999998
100
AcDbArc
 50
212.9359367964486
 51
253.5199290812634
  0
LINE
  5
106
330
2
100
AcDbEntity
  8
GEB-KONTUR-A
 48
25.0
100
AcDbLine
 10
51.99999937294927
 20
256.7102965756248
 30
0.0
 11
51.99999937294927
 21
256.3405627640316
 31
0.0
  0
ARC
  5
107
330
2
100
AcDbEntity
  8
GEB-KONTUR-A
 48
25.0
100
AcDbCircle
 10
54.55313578082905
 20
265.3405627640318
 30
0.0
 40
9.000000000000222
100
AcDbArc
 50
253.5199290812634
 51
270.0
  0
LINE
  5
108
330
2
100
AcDbEntity
  8
GEB-KONTUR-A
 48
25.0
100
AcDbLine
 10
54.553135780829
 20
256.3405627640316
 30
0.0
 11
51.99999937294927
 21
256.3405627640316
 31
0.0
  0
ARC
  5
109
330
2
100
AcDbEntity
  8
GEB-KONTUR-A
 48
25.0
100
AcDbCircle
 10
0.1124723471122593
 20
232.2047134263753
 30
0.0
 40
64.99999999999994
100
AcDbArc
 50
189.479104364775
 51
212.0177174358824
  0
LINE
  5
10A
330
2
100
AcDbEntity
  8
GEB-KONTUR-A
 48
25.0
100
AcDbLine
 10
-63.99999999999943
 20
221.5
 30
0.0
 11
-56.99999999999949
 21
221.5
 31
0.0
  0
LINE
  5
10B
330
2
100
AcDbEntity
  8
GEB-KONTUR-A
 48
25.0
100
AcDbLine
 10
-56.99999999999949
 20
222.5
 30
0.0
 11
-56.99999999999949
 21
221.5000000000001
 31
0.0
  0
LINE
  5
10C
330
2
100
AcDbEntity
  8
GEB-KONTUR-A
 48
25.0
100
AcDbLine
 10
-54.99999999999943
 20
222.5
 30
0.0
 11
-56.99999999999949
 21
222.5
 31
0.0
  0
LINE
  5
10D
330
2
100
AcDbEntity
  8
GEB-KONTUR-A
 48
25.0
100
AcDbLine
 10
-54.99999999999943
 20
222.5669656263401
 30
0.0
 11
-54.99999999999943
 21
222.5
 31
0.0
  0
LINE
  5
10E
330
2
100
AcDbEntity
  8
GEB-KONTUR-A
 48
25.0
100
AcDbLine
 10
55.00000000000017
 20
222.5
 30
0.0
 11
55.00000000000017
 21
222.5669656263415
 31
0.0
  0
LINE
  5
10F
330
2
100
AcDbEntity
  8
GEB-KONTUR-A
 48
25.0
100
AcDbLine
 10
57.00000000000023
 20
222.5
 30
0.0
 11
55.00000000000017
 21
222.5
 31
0.0
  0
LINE
  5
110
330
2
100
AcDbEntity
  8
GEB-KONTUR-A
 48
25.0
100
AcDbLine
 10
57.00000000000023
 20
221.5
 30
0.0
 11
57.00000000000023
 21
222.5
 31
0.0
  0
LINE
  5
111
330
2
100
AcDbEntity
  8
GEB-KONTUR-A
 48
25.0
100
AcDbLine
 10
57.00000000000023
 20
221.5
 30
0.0
 11
64.22494469422389
 21
221.5
 31
0.0
  0
ARC
  5
112
330
2
100
AcDbEntity
  8
GEB-KONTUR-A
 48
25.0
100
AcDbCircle
 10
0.1124723471124867
 20
232.2047134263752
 30
0.0
 40
64.99999999999966
100
AcDbArc
 50
327.6102214372604
 51
350.5208956352249
  0
LINE
  5
113
330
2
100
AcDbEntity
  8
GEB-KONTUR-A
 48
25.0
100
AcDbLine
 10
-54.9999999999996
 20
197.7429173067761
 30
0.0
 11
-54.99999999999949
 21
189.0000000000001
 31
0.0
  0
LINE
  5
114
330
2
100
AcDbEntity
  8
GEB-KONTUR-A
 48
25.0
100
AcDbLine
 10
55.00000000000017
 20
189.0000000000001
 30
0.0
 11
55.00000000000017
 21
197.3857630092038
 31
0.0
  0
LINE
  5
115
330
2
100
AcDbEntity
  8
GEB-KONTUR-A
 48
25.0
100
AcDbLine
 10
-54.99999999999949
 20
171.0000000000001
 30
0.0
 11
-54.99999999999949
 21
189.0000000000001
 31
0.0
  0
LINE
  5
116
330
2
100
AcDbEntity
  8
GEB-KONTUR-A
 48
25.0
100
AcDbLine
 10
-54.99999999999949
 20
189.0000000000001
 30
0.0
 11
-51.99999999999954
 21
189.0000000000001
 31
0.0
  0
LINE
  5
117
330
2
100
AcDbEntity
  8
GEB-KONTUR-A
 48
25.0
100
AcDbLine
 10
-51.99999999999954
 20
171.0000000000001
 30
0.0
 11
-51.99999999999954
 21
189.0000000000001
 31
0.0
  0
LINE
  5
118
330
2
100
AcDbEntity
  8
GEB-KONTUR-A
 48
25.0
100
AcDbLine
 10
52.00000000000017
 20
189.0000000000001
 30
0.0
 11
55.00000000000017
 21
189.0000000000001
 31
0.0
  0
LINE
  5
119
330
2
100
AcDbEntity
  8
GEB-KONTUR-A
 48
25.0
100
AcDbLine
 10
55.00000000000011
 20
171.0000000000001
 30
0.0
 11
55.00000000000017
 21
189.0000000000001
 31
0.0
  0
LINE
  5
11A
330
2
100
AcDbEntity
  8
GEB-KONTUR-A
 48
25.0
100
AcDbLine
 10
52.00000000000017
 20
171.0000000000001
 30
0.0
 11
52.00000000000017
 21
189.0000000000001
 31
0.0
  0
LINE
  5
11B
330
2
100
AcDbEntity
  8
GEB-KONTUR-A
 48
25.0
100
AcDbLine
 10
-32.02499999999958
 20
181.0000000000001
 30
0.0
 11
-32.02499999999958
 21
171.0000000000001
 31
0.0
  0
LINE
  5
11C
330
2
100
AcDbEntity
  8
GEB-KONTUR-A
 48
25.0
100
AcDbLine
 10
-32.02499999999958
 20
181.0000000000001
 30
0.0
 11
-29.02499999999964
 21
181.0000000000001
 31
0.0
  0
LINE
  5
11D
330
2
100
AcDbEntity
  8
GEB-KONTUR-A
 48
25.0
100
AcDbLine
 10
-29.02499999999964
 20
171.0000000000001
 30
0.0
 11
-29.02499999999964
 21
181.0000000000001
 31
0.0
  0
LINE
  5
11E
330
2
100
AcDbEntity
  8
GEB-KONTUR-A
 48
25.0
100
AcDbLine
 10
55.00000000000011
 20
166.0000000000001
 30
0.0
 11
55.00000000000011
 21
171.0000000000001
 31
0.0
  0
LINE
  5
11F
330
2
100
AcDbEntity
  8
GEB-KONTUR-A
 48
25.0
100
AcDbLine
 10
-54.9999999999996
 20
166.0000000000001
 30
0.0
 11
-54.99999999999949
 21
171.0000000000001
 31
0.0
  0
LINE
  5
120
330
2
100
AcDbEntity
  8
GEB-KONTUR-A
 48
25.0
100
AcDbLine
 10
-54.99999999999949
 20
171.0000000000001
 30
0.0
 11
55.00000000000011
 21
171.0000000000001
 31
0.0
  0
LINE
  5
121
330
2
100
AcDbEntity
  8
GEB-KONTUR-A
 48
25.0
100
AcDbLine
 10
29.02500000000026
 20
181.0000000000001
 30
0.0
 11
32.0250000000002
 21
181.0000000000001
 31
0.0
  0
LINE
  5
122
330
2
100
AcDbEntity
  8
GEB-KONTUR-A
 48
25.0
100
AcDbLine
 10
32.0250000000002
 20
181.0000000000001
 30
0.0
 11
32.0250000000002
 21
171.0000000000001
 31
0.0
  0
LINE
  5
123
330
2
100
AcDbEntity
  8
GEB-KONTUR-A
 48
25.0
100
AcDbLine
 10
29.02500000000026
 20
171.0000000000001
 30
0.0
 11
29.02500000000026
 21
181.0000000000001
 31
0.0
  0
LINE
  5
124
330
2
100
AcDbEntity
  8
GEB-KONTUR-A
 48
25.0
100
AcDbLine
 10
45.18749999999994
 20
4.000000000000113
 30
0.0
 11
45.18750000000017
 21
136.0000000000001
 31
0.0
  0
LINE
  5
125
330
2
100
AcDbEntity
  8
GEB-KONTUR-A
 48
25.0
100
AcDbLine
 10
-45.18749999999999
 20
4.000000000000113
 30
0.0
 11
-45.18749999999971
 21
136.0
 31
0.0
  0
LINE
  5
126
330
2
100
AcDbEntity
  8
GEB-KONTUR-A
 48
25.0
100
AcDbLine
 10
-45.18749999999999
 20
4.000000000000113
 30
0.0
 11
45.18749999999994
 21
4.000000000000113
 31
0.0
  0
CIRCLE
  5
127
330
2
100
AcDbEntity
  8
GEB-KONTUR-A
 48
25.0
100
AcDbCircle
 10
0.0000000000003979
 20
230.0
 30
0.0
 40
46.09999999999994
  0
CIRCLE
  5
128
330
2
100
AcDbEntity
  8
GEB-KONTUR-A
 48
25.0
100
AcDbCircle
 10
0.0000000000003979
 20
230.0
 30
0.0
 40
45.72499999999997
  0
CIRCLE
  5
129
330
2
100
AcDbEntity
  8
GEB-KONTUR-A
 48
25.0
100
AcDbCircle
 10
0.0000000000003979
 20
230.0
 30
0.0
 40
41.51249999999997
  0
CIRCLE
  5
12A
330
2
100
AcDbEntity
  8
GEB-KONTUR-A
 48
25.0
100
AcDbCircle
 10
0.0000000000003979
 20
230.0
 30
0.0
 40
48.99999999999995
  0
CIRCLE
  5
12B
330
2
100
AcDbEntity
  8
GEB-KONTUR-A
 48
25.0
100
AcDbCircle
 10
0.0000000000003979
 20
230.0
 30
0.0
 40
55.49999999999996
  0
SPLINE
  5
12C
330
2
100
AcDbEntity
  8
GEB-KONTUR-A
 48
25.0
100
AcDbSpline
210
0.0
220
0.0
230
1.0
 70
     8
 71
     3
 72
    10
 73
     6
 74
     0
 42
0.0000000001
 43
0.0000000001
 40
3.259326178633831
 40
3.259326178633831
 40
3.259326178633831
 40
3.259326178633831
 40
3.537530329351436
 40
3.537530329351436
 40
3.727278197046944
 40
3.727278197046944
 40
3.727278197046944
 40
3.727278197046944
 10
-206.4444332340469
 20
425.0
 30
0.0
 10
-206.4127849754369
 20
432.9547677679973
 30
0.0
 10
-206.3436893003561
 20
440.7786144070069
 30
0.0
 10
-206.1687130235
 20
453.2231996205748
 30
0.0
 10
-206.0815751674188
 20
458.0716461556512
 30
0.0
 10
-205.9796872643104
 20
462.6381859567581
 30
0.0
  0
SPLINE
  5
12D
330
2
100
AcDbEntity
  8
GEB-KONTUR-A
 48
25.0
100
AcDbSpline
210
0.0
220
0.0
230
1.0
 70
     8
 71
     3
 72
    12
 73
     8
 74
     0
 42
0.0000000001
 43
0.0000000001
 40
1.62896866553027
 40
1.62896866553027
 40
1.62896866553027
 40
1.62896866553027
 40
1.654098484177907
 40
1.654098484177907
 40
1.69640796865462
 40
1.69640796865462
 40
1.771227642495658
 40
1.771227642495658
 40
1.771227642495658
 40
1.771227642495658
 10
-202.2653861046198
 20
323.4984529850133
 30
0.0
 10
-202.6334498213885
 20
324.1357190128722
 30
0.0
 10
-202.8476126160384
 20
324.6251585427137
 30
0.0
 10
-203.2986577500405
 20
325.7447856406074
 30
0.0
 10
-203.4432103340718
 20
326.2488226525547
 30
0.0
 10
-203.7764698747799
 20
327.4999341991125
 30
0.0
 10
-203.8922878344631
 20
328.1288402860972
 30
0.0
 10
-204.0
 20
328.7794072836945
 30
0.0
  0
SPLINE
  5
12E
330
2
100
AcDbEntity
  8
GEB-KONTUR-A
 48
25.0
100
AcDbSpline
210
0.0
220
0.0
230
1.0
 70
     8
 71
     3
 72
    12
 73
     8
 74
     0
 42
0.0000000001
 43
0.0000000001
 40
3.260355613450173
 40
3.260355613450173
 40
3.260355613450173
 40
3.260355613450173
 40
3.344917389371694
 40
3.344917389371694
 40
3.663394523583864
 40
3.663394523583864
 40
3.727278197046944
 40
3.727278197046944
 40
3.727278197046944
 40
3.727278197046944
 10
-184.4442575826187
 20
425.0
 30
0.0
 10
-184.4346390847849
 20
427.3964512421549
 30
0.0
 10
-184.4216109391643
 20
429.7806435290028
 30
0.0
 10
-184.3434960822238
 20
441.0446077264095
 30
0.0
 10
-184.2337011953958
 20
449.6454456392462
 30
0.0
 10
-184.0511437906713
 20
459.0850793473446
 30
0.0
 10
-184.0189585860609
 20
460.6326749181423
 30
0.0
 10
-183.9851612206191
 20
462.1474476218136
 30
0.0
  0
SPLINE
  5
12F
330
2
100
AcDbEntity
  8
GEB-KONTUR-A
 48
25.0
100
AcDbSpline
210
0.0
220
0.0
230
1.0
 70
     8
 71
     3
 72
     8
 73
     4
 74
     0
 42
0.0000000001
 43
0.0000000001
 40
1.904251219684091
 40
1.904251219684091
 40
1.904251219684091
 40
1.904251219684091
 40
2.079227342125413
 40
2.079227342125413
 40
2.079227342125413
 40
2.079227342125413
 10
-182.570133754684
 20
334.6548122356338
 30
0.0
 10
-182.7102722886364
 20
336.0979689241166
 30
0.0
 10
-182.858088350932
 20
338.0441818540685
 30
0.0
 10
-183.0000000000003
 20
340.3954304024026
 30
0.0
  0
LINE
  5
130
330
2
100
AcDbEntity
  8
GEB-KONTUR-A
 48
25.0
100
AcDbLine
 10
-202.2653861046198
 20
323.4984529850134
 30
0.0
 11
-202.2600021313845
 21
323.4891311663134
 31
0.0
  0
SPLINE
  5
131
330
2
100
AcDbEntity
  8
GEB-KONTUR-A
 48
25.0
100
AcDbSpline
210
0.0
220
0.0
230
1.0
 70
     8
 71
     3
 72
    14
 73
    10
 74
     0
 42
0.0000000001
 43
0.0000000001
 40
5.697499763722435
 40
5.697499763722435
 40
5.697499763722435
 40
5.697499763722435
 40
5.814636872413865
 40
5.814636872413865
 40
5.931773981105296
 40
5.931773981105296
 40
6.048911089796726
 40
6.048911089796726
 40
6.16335955390252
 40
6.16335955390252
 40
6.16335955390252
 40
6.16335955390252
 10
-205.9796872643103
 20
462.6381859567581
 30
0.0
 10
-205.6897572646777
 20
475.6326322302195
 30
0.0
 10
-205.4254046231078
 20
489.1348486873243
 30
0.0
 10
-204.9515420050615
 20
516.9686024318082
 30
0.0
 10
-204.7420329546345
 20
531.3000586277385
 30
0.0
 10
-204.3807671142907
 20
560.5949168993658
 30
0.0
 10
-204.2290111903465
 20
575.5582305758271
 30
0.0
 10
-203.988149845325
 20
605.5626268442229
 30
0.0
 10
-203.8976854499974
 20
620.5939450337598
 30
0.0
 10
-203.8363858756534
 20
635.7299999999991
 30
0.0
  0
SPLINE
  5
132
330
2
100
AcDbEntity
  8
GEB-KONTUR-A
 48
25.0
100
AcDbSpline
210
0.0
220
0.0
230
1.0
 70
     8
 71
     3
 72
    14
 73
    10
 74
     0
 42
0.0000000001
 43
0.0000000001
 40
5.697499763722435
 40
5.697499763722435
 40
5.697499763722435
 40
5.697499763722435
 40
5.814636872413865
 40
5.814636872413865
 40
5.931773981105296
 40
5.931773981105296
 40
6.048911089796726
 40
6.048911089796726
 40
6.163583690668327
 40
6.163583690668327
 40
6.163583690668327
 40
6.163583690668327
 10
-183.9851612206191
 20
462.1474476218134
 30
0.0
 10
-183.6943035828057
 20
475.1834699464478
 30
0.0
 10
-183.4292098507097
 20
488.7240784877153
 30
0.0
 10
-182.9541119159522
 20
516.6303922946074
 30
0.0
 10
-182.7441097629554
 20
530.9960038641418
 30
0.0
 10
-182.3820356758581
 20
560.356402442798
 30
0.0
 10
-182.2299651440062
 20
575.3510939222787
 30
0.0
 10
-181.9883855754938
 20
605.4449601811038
 30
0.0
 10
-181.8976270761221
 20
620.5351987039791
 30
0.0
 10
-181.8362057981412
 20
635.7299999999991
 30
0.0
  0
LINE
  5
133
330
2
100
AcDbEntity
  8
GEB-KONTUR-A
 48
25.0
100
AcDbLine
 10
-181.7400000000104
 20
901.1576792056466
 30
0.0
 11
-181.7400000000104
 21
937.9999999999993
 31
0.0
  0
LINE
  5
134
330
2
100
AcDbEntity
  8
GEB-KONTUR-A
 48
25.0
100
AcDbLine
 10
-203.7400000000103
 20
870.999998720946
 30
0.0
 11
-203.7400000000103
 21
937.9999999999993
 31
0.0
  0
LINE
  5
135
330
2
100
AcDbEntity
  8
GEB-KONTUR-A
 48
25.0
100
AcDbLine
 10
-203.7400000000103
 20
810.7299999999986
 30
0.0
 11
-203.7400000000103
 21
818.9999987209462
 31
0.0
  0
ELLIPSE
  5
136
330
2
100
AcDbEntity
  8
GEB-KONTUR-A
 48
25.0
100
AcDbEllipse
 10
-192.0000000000001
 20
329.0000000000001
 30
0.0
 11
-0.0000000000067324
 21
-10.99999999999998
 31
0.0
210
0.0
220
0.0
230
1.0
 40
0.9994341374204115
 41
4.022613979599801
 42
8.543756634760597
  0
SPLINE
  5
137
330
2
100
AcDbEntity
  8
GEB-KONTUR-A
 48
25.0
100
AcDbSpline
210
0.0
220
0.0
230
1.0
 70
     8
 71
     3
 72
    14
 73
    10
 74
     0
 42
0.0000000001
 43
0.0000000001
 40
2.650459874681378
 40
2.650459874681378
 40
2.650459874681378
 40
2.650459874681378
 40
2.861871999787521
 40
2.861871999787521
 40
3.143733220956813
 40
3.143733220956813
 40
3.42198153923822
 40
3.42198153923822
 40
3.443791074776519
 40
3.443791074776519
 40
3.443791074776519
 40
3.443791074776519
 10
-200.9999977184648
 20
336.2508685351887
 30
0.0
 10
-201.462759932809
 20
335.7232569269182
 30
0.0
 10
-201.8750014031696
 20
335.1515305993132
 30
0.0
 10
-202.704242042947
 20
333.7317936117017
 30
0.0
 10
-203.0723296016244
 20
332.8632849709641
 30
0.0
 10
-203.5758178665474
 20
331.0657967169607
 30
0.0
 10
-203.7121330385946
 20
330.1449025606845
 30
0.0
 10
-203.7329135701495
 20
329.1453331332277
 30
0.0
 10
-203.7337043971391
 20
329.0726674750703
 30
0.0
 10
-203.7337755116348
 20
329.0000000000063
 30
0.0
  0
ELLIPSE
  5
138
330
2
100
AcDbEntity
  8
GEB-KONTUR-A
 48
25.0
100
AcDbEllipse
 10
-192.7400000000102
 20
329.0000000000001
 30
0.0
 11
-5.500779491090244
 21
-9.529416487145002
 31
0.0
210
0.0
220
0.0
230
1.0
 40
0.9988698700929049
 41
5.235417102022331
 42
6.8062134288172
  0
LINE
  5
139
330
2
100
AcDbEntity
  8
GEB-KONTUR-A
 48
25.0
100
AcDbLine
 10
-210.0000000000004
 20
870.9999987209469
 30
0.0
 11
-202.0000000000004
 21
870.9999987209469
 31
0.0
  0
LINE
  5
13A
330
2
100
AcDbEntity
  8
GEB-KONTUR-A
 48
25.0
100
AcDbLine
 10
-210.0000000000004
 20
818.9999987209471
 30
0.0
 11
-202.0000000000003
 21
818.9999987209471
 31
0.0
  0
LINE
  5
13B
330
2
100
AcDbEntity
  8
GEB-KONTUR-A
 48
25.0
100
AcDbLine
 10
-202.0000000000003
 20
822.999998720947
 30
0.0
 11
-202.0000000000003
 21
818.9999987209471
 31
0.0
  0
LINE
  5
13C
330
2
100
AcDbEntity
  8
GEB-KONTUR-A
 48
25.0
100
AcDbLine
 10
-202.0000000000003
 20
822.9999987209467
 30
0.0
 11
-202.0000000000004
 21
866.9999987209468
 31
0.0
  0
LINE
  5
13D
330
2
100
AcDbEntity
  8
GEB-KONTUR-A
 48
25.0
100
AcDbLine
 10
-202.0000000000004
 20
870.9999987209469
 30
0.0
 11
-202.0000000000004
 21
866.9999987209468
 31
0.0
  0
LINE
  5
13E
330
2
100
AcDbEntity
  8
GEB-KONTUR-A
 48
25.0
100
AcDbLine
 10
-210.0000000000004
 20
866.9999987209468
 30
0.0
 11
-210.0000000000004
 21
870.9686256875439
 31
0.0
  0
LINE
  5
13F
330
2
100
AcDbEntity
  8
GEB-KONTUR-A
 48
25.0
100
AcDbLine
 10
-210.0000000000004
 20
866.9999987209468
 30
0.0
 11
-210.0000000000004
 21
822.9999987209467
 31
0.0
  0
LINE
  5
140
330
2
100
AcDbEntity
  8
GEB-KONTUR-A
 48
25.0
100
AcDbLine
 10
-210.0000000000004
 20
819.0313717543501
 30
0.0
 11
-210.0000000000004
 21
822.999998720947
 31
0.0
  0
CIRCLE
  5
141
330
2
100
AcDbEntity
  8
GEB-KONTUR-A
 48
25.0
100
AcDbCircle
 10
-130.5000000000004
 20
1010.00000018828
 30
0.0
 40
1.6
  0
LINE
  5
142
330
2
100
AcDbEntity
  8
GEB-KONTUR-A
 48
25.0
100
AcDbLine
 10
-208.0
 20
810.7299999999991
 30
0.0
 11
-207.9999999999997
 21
635.73
 31
0.0
  0
LINE
  5
143
330
2
100
AcDbEntity
  8
GEB-KONTUR-A
 48
25.0
100
AcDbLine
 10
-186.9999999999997
 20
635.73
 30
0.0
 11
-207.9999999999997
 21
635.73
 31
0.0
  0
LINE
  5
144
330
2
100
AcDbEntity
  8
GEB-KONTUR-A
 48
25.0
100
AcDbLine
 10
-208.0
 20
810.7299999999993
 30
0.0
 11
-190.0
 21
810.7299999999993
 31
0.0
  0
LINE
  5
145
330
2
100
AcDbEntity
  8
GEB-KONTUR-A
 48
25.0
100
AcDbLine
 10
-190.0000000000001
 20
896.3887659821462
 30
0.0
 11
-190.0
 21
810.7299999999993
 31
0.0
  0
LINE
  5
146
330
2
100
AcDbEntity
  8
GEB-KONTUR-A
 48
25.0
100
AcDbLine
 10
-190.0
 20
896.3887659821462
 30
0.0
 11
-187.0000000000001
 21
898.1208167897152
 31
0.0
  0
LINE
  5
147
330
2
100
AcDbEntity
  8
GEB-KONTUR-A
 48
25.0
100
AcDbLine
 10
186.9999999999992
 20
635.73
 30
0.0
 11
-186.9999999999997
 21
635.7300000000004
 31
0.0
  0
LINE
  5
148
330
2
100
AcDbEntity
  8
GEB-KONTUR-A
 48
25.0
100
AcDbLine
 10
-156.5000000000001
 20
915.7299999999985
 30
0.0
 11
156.4999999999991
 21
915.7299999999985
 31
0.0
  0
LINE
  5
149
330
2
100
AcDbEntity
  8
GEB-KONTUR-A
 48
25.0
100
AcDbLine
 10
-156.5000000000001
 20
915.7299999999985
 30
0.0
 11
-187.0000000000001
 21
898.1208167897152
 31
0.0
  0
LINE
  5
14A
330
2
100
AcDbEntity
  8
GEB-KONTUR-A
 48
25.0
100
AcDbLine
 10
186.999999999999
 20
898.1208167897149
 30
0.0
 11
156.4999999999991
 21
915.7299999999981
 31
0.0
  0
LINE
  5
14B
330
2
100
AcDbEntity
  8
GEB-KONTUR-A
 48
25.0
100
AcDbLine
 10
207.9999999999993
 20
635.73
 30
0.0
 11
207.9999999999991
 21
810.7299999999991
 31
0.0
  0
LINE
  5
14C
330
2
100
AcDbEntity
  8
GEB-KONTUR-A
 48
25.0
100
AcDbLine
 10
207.9999999999992
 20
635.73
 30
0.0
 11
186.9999999999992
 21
635.73
 31
0.0
  0
LINE
  5
14D
330
2
100
AcDbEntity
  8
GEB-KONTUR-A
 48
25.0
100
AcDbLine
 10
189.9999999999991
 20
810.7299999999991
 30
0.0
 11
207.9999999999991
 21
810.7299999999991
 31
0.0
  0
LINE
  5
14E
330
2
100
AcDbEntity
  8
GEB-KONTUR-A
 48
25.0
100
AcDbLine
 10
186.999999999999
 20
898.1208167897149
 30
0.0
 11
189.999999999999
 21
896.3887659821457
 31
0.0
  0
LINE
  5
14F
330
2
100
AcDbEntity
  8
GEB-KONTUR-A
 48
25.0
100
AcDbLine
 10
189.9999999999991
 20
810.7299999999991
 30
0.0
 11
189.999999999999
 21
896.3887659821457
 31
0.0
  0
LINE
  5
150
330
2
100
AcDbEntity
  8
GEB-KONTUR-A
 48
25.0
100
AcDbLine
 10
-28.00000000000034
 20
578.9999999999995
 30
0.0
 11
-28.00000000000034
 21
425.0
 31
0.0
  0
LINE
  5
151
330
2
100
AcDbEntity
  8
GEB-KONTUR-A
 48
25.0
100
AcDbLine
 10
27.99999999999983
 20
578.9999999999995
 30
0.0
 11
27.99999999999983
 21
425.0
 31
0.0
  0
LINE
  5
152
330
2
100
AcDbEntity
  8
GEB-KONTUR-A
 48
25.0
100
AcDbLine
 10
-29.5000000000004
 20
581.9999999999995
 30
0.0
 11
-29.5000000000004
 21
578.9999999999995
 31
0.0
  0
LINE
  5
153
330
2
100
AcDbEntity
  8
GEB-KONTUR-A
 48
25.0
100
AcDbLine
 10
29.49999999999983
 20
581.9999999999995
 30
0.0
 11
29.49999999999983
 21
578.9999999999995
 31
0.0
  0
LINE
  5
154
330
2
100
AcDbEntity
  8
GEB-KONTUR-A
 48
25.0
100
AcDbLine
 10
-28.0000000000004
 20
584.9999999999995
 30
0.0
 11
-28.0000000000004
 21
581.9999999999995
 31
0.0
  0
LINE
  5
155
330
2
100
AcDbEntity
  8
GEB-KONTUR-A
 48
25.0
100
AcDbLine
 10
27.99999999999983
 20
584.9999999999995
 30
0.0
 11
27.99999999999983
 21
581.9999999999995
 31
0.0
  0
LINE
  5
156
330
2
100
AcDbEntity
  8
GEB-KONTUR-A
 48
25.0
100
AcDbLine
 10
-29.5000000000004
 20
587.9999999999995
 30
0.0
 11
-29.5000000000004
 21
584.9999999999995
 31
0.0
  0
LINE
  5
157
330
2
100
AcDbEntity
  8
GEB-KONTUR-A
 48
25.0
100
AcDbLine
 10
29.49999999999983
 20
587.9999999999995
 30
0.0
 11
29.49999999999983
 21
584.9999999999995
 31
0.0
  0
LINE
  5
158
330
2
100
AcDbEntity
  8
GEB-KONTUR-A
 48
25.0
100
AcDbLine
 10
-28.0000000000004
 20
592.9999999999997
 30
0.0
 11
-28.0000000000004
 21
587.9999999999998
 31
0.0
  0
LINE
  5
159
330
2
100
AcDbEntity
  8
GEB-KONTUR-A
 48
25.0
100
AcDbLine
 10
27.99999999999983
 20
592.9999999999997
 30
0.0
 11
27.99999999999983
 21
587.9999999999998
 31
0.0
  0
LINE
  5
15A
330
2
100
AcDbEntity
  8
GEB-KONTUR-A
 48
25.0
100
AcDbLine
 10
27.99999999999989
 20
592.9999999999997
 30
0.0
 11
36.99999999999983
 21
601.9999999999996
 31
0.0
  0
LINE
  5
15B
330
2
100
AcDbEntity
  8
GEB-KONTUR-A
 48
25.0
100
AcDbLine
 10
-28.0000000000004
 20
592.9999999999997
 30
0.0
 11
-37.00000000000034
 21
601.9999999999996
 31
0.0
  0
LINE
  5
15C
330
2
100
AcDbEntity
  8
GEB-KONTUR-A
 48
25.0
100
AcDbLine
 10
-51.00000000000028
 20
611.9999999999995
 30
0.0
 11
-51.00000000000028
 21
601.9999999999996
 31
0.0
  0
LINE
  5
15D
330
2
100
AcDbEntity
  8
GEB-KONTUR-A
 48
25.0
100
AcDbLine
 10
50.99999999999972
 20
611.9999999999995
 30
0.0
 11
50.99999999999972
 21
601.9999999999996
 31
0.0
  0
LINE
  5
15E
330
2
100
AcDbEntity
  8
GEB-KONTUR-A
 48
25.0
100
AcDbLine
 10
-29.5000000000004
 20
578.9999999999998
 30
0.0
 11
29.49999999999983
 21
578.9999999999998
 31
0.0
  0
LINE
  5
15F
330
2
100
AcDbEntity
  8
GEB-KONTUR-A
 48
25.0
100
AcDbLine
 10
-29.5000000000004
 20
581.9999999999995
 30
0.0
 11
29.49999999999983
 21
581.9999999999995
 31
0.0
  0
LINE
  5
160
330
2
100
AcDbEntity
  8
GEB-KONTUR-A
 48
25.0
100
AcDbLine
 10
-29.5000000000004
 20
584.9999999999995
 30
0.0
 11
29.49999999999983
 21
584.9999999999995
 31
0.0
  0
LINE
  5
161
330
2
100
AcDbEntity
  8
GEB-KONTUR-A
 48
25.0
100
AcDbLine
 10
-29.5000000000004
 20
587.9999999999995
 30
0.0
 11
29.49999999999983
 21
587.9999999999995
 31
0.0
  0
LINE
  5
162
330
2
100
AcDbEntity
  8
GEB-KONTUR-A
 48
25.0
100
AcDbLine
 10
-28.0000000000004
 20
592.9999999999997
 30
0.0
 11
27.99999999999983
 21
592.9999999999997
 31
0.0
  0
LINE
  5
163
330
2
100
AcDbEntity
  8
GEB-KONTUR-A
 48
25.0
100
AcDbLine
 10
-51.00000000000022
 20
601.9999999999996
 30
0.0
 11
50.99999999999965
 21
601.9999999999996
 31
0.0
  0
LINE
  5
164
330
2
100
AcDbEntity
  8
GEB-KONTUR-A
 48
25.0
100
AcDbLine
 10
-51.00000000000028
 20
611.9999999999995
 30
0.0
 11
50.99999999999972
 21
611.9999999999995
 31
0.0
  0
CIRCLE
  5
165
330
2
100
AcDbEntity
  8
GEB-KONTUR-A
 48
25.0
100
AcDbCircle
 10
-0.0000000000002274
 20
365.0
 30
0.0
 40
22.84999999999998
  0
CIRCLE
  5
166
330
2
100
AcDbEntity
  8
GEB-KONTUR-A
 48
25.0
100
AcDbCircle
 10
-0.0000000000002274
 20
365.0
 30
0.0
 40
25.84999999999998
  0
CIRCLE
  5
167
330
2
100
AcDbEntity
  8
GEB-KONTUR-A
 48
25.0
100
AcDbCircle
 10
-0.0000000000002274
 20
365.0
 30
0.0
 40
29.49999999999997
  0
LINE
  5
168
330
2
100
AcDbEntity
  8
GEB-KONTUR-A
 48
25.0
100
AcDbLine
 10
-13.12500000000023
 20
334.0000000000001
 30
0.0
 11
-13.12500000000023
 21
338.5806060818951
 31
0.0
  0
LINE
  5
169
330
2
100
AcDbEntity
  8
GEB-KONTUR-A
 48
25.0
100
AcDbLine
 10
-13.12500000000017
 20
327.0000000000002
 30
0.0
 11
-13.12500000000023
 21
330.7495454169737
 31
0.0
  0
LINE
  5
16A
330
2
100
AcDbEntity
  8
GEB-KONTUR-A
 48
25.0
100
AcDbLine
 10
13.12499999999977
 20
330.7495454169737
 30
0.0
 11
13.12499999999977
 21
327.0000000000002
 31
0.0
  0
LINE
  5
16B
330
2
100
AcDbEntity
  8
GEB-KONTUR-A
 48
25.0
100
AcDbLine
 10
13.12499999999977
 20
338.5806060818951
 30
0.0
 11
13.12499999999977
 21
334.0000000000001
 31
0.0
  0
CIRCLE
  5
16C
330
2
100
AcDbEntity
  8
GEB-KONTUR-A
 48
25.0
100
AcDbCircle
 10
-0.0000000000002274
 20
367.3500000000001
 30
0.0
 40
20.49999999999999
  0
SPLINE
  5
16D
330
2
100
AcDbEntity
  8
GEB-KONTUR-A
 48
25.0
100
AcDbSpline
210
0.0
220
0.0
230
1.0
 70
     8
 71
     3
 72
    12
 73
     8
 74
     0
 42
0.0000000001
 43
0.0000000001
 40
0.9913558952380114
 40
0.9913558952380114
 40
0.9913558952380114
 40
0.9913558952380114
 40
1.556675540126697
 40
1.556675540126697
 40
2.609747750028297
 40
2.609747750028297
 40
2.645156542966986
 40
2.645156542966986
 40
2.645156542966986
 40
2.645156542966986
 10
-24.42398252824018
 20
381.5444576055013
 30
0.0
 10
-24.62212130802362
 20
383.1984505680548
 30
0.0
 10
-24.83911349080268
 20
384.9354742951505
 30
0.0
 10
-25.47988481547202
 20
390.0017475723473
 30
0.0
 10
-25.92599072373224
 20
393.4604816637943
 30
0.0
 10
-26.35690572413319
 20
397.040838035879
 30
0.0
 10
-26.37089616346276
 20
397.157343882848
 30
0.0
 10
-26.38485741355868
 20
397.2738839637679
 30
0.0
  0
SPLINE
  5
16E
330
2
100
AcDbEntity
  8
GEB-KONTUR-A
 48
25.0
100
AcDbSpline
210
0.0
220
0.0
230
1.0
 70
     8
 71
     3
 72
    12
 73
     8
 74
     0
 42
0.0000000001
 43
0.0000000001
 40
1.701674525124975
 40
1.701674525124975
 40
1.701674525124975
 40
1.701674525124975
 40
1.837366497681449
 40
1.837366497681449
 40
3.015680151085728
 40
3.015680151085728
 40
3.355171247799053
 40
3.355171247799053
 40
3.355171247799053
 40
3.355171247799053
 10
26.38493675963997
 20
397.2737553192185
 30
0.0
 10
26.33139799586166
 20
396.8272624780216
 30
0.0
 10
26.27743531634064
 20
396.3812894191858
 30
0.0
 10
25.75174765796936
 20
392.0681332207193
 30
0.0
 10
25.24775742224853
 20
388.2031781027472
 30
0.0
 10
24.66845972676663
 20
383.5591697711061
 30
0.0
 10
24.54288499119281
 20
382.5374033901758
 30
0.0
 10
24.42396806506605
 20
381.5444789569397
 30
0.0
  0
ELLIPSE
  5
16F
330
2
100
AcDbEntity
  8
GEB-KONTUR-A
 48
25.0
100
AcDbEllipse
 10
-0.0000000000002274
 20
374.8187770797431
 30
0.0
 11
-20.5
 21
-0.0000000000000228
 31
0.0
210
0.0
220
0.0
230
1.0
 40
0.7071067811865489
 41
0.2150741986046352
 42
2.926518454985165
  0
SPLINE
  5
170
330
2
100
AcDbEntity
  8
GEB-KONTUR-A
 48
25.0
100
AcDbSpline
210
0.0
220
0.0
230
1.0
 70
     8
 71
     3
 72
     8
 73
     4
 74
     0
 42
0.0000000001
 43
0.0000000001
 40
-0.6452238320846249
 40
-0.6452238320846249
 40
-0.6452238320846249
 40
-0.6452238320846249
 40
-0.6314204299464877
 40
-0.6314204299464877
 40
-0.6314204299464877
 40
-0.6314204299464877
 10
-187.0577980512024
 20
938.0
 30
0.0
 10
-186.9784294066684
 20
938.0
 30
0.0
 10
-186.8994503363611
 20
938.0006962044252
 30
0.0
 10
-186.8208798574003
 20
938.0020748816555
 30
0.0
  0
LINE
  5
171
330
2
100
AcDbEntity
  8
GEB-KONTUR-A
 48
25.0
100
AcDbLine
 10
-186.8208798574006
 20
938.0
 30
0.0
 11
-187.0577980512024
 21
938.0
 31
0.0
  0
LINE
  5
172
330
2
100
AcDbEntity
  8
GEB-KONTUR-A
 48
25.0
100
AcDbLine
 10
-177.9125507476881
 20
938.0
 30
0.0
 11
-177.9125507476881
 21
916.0129995221609
 31
0.0
  0
SPLINE
  5
173
330
2
100
AcDbEntity
  8
GEB-KONTUR-A
 48
25.0
100
AcDbSpline
210
0.0
220
0.0
230
1.0
 70
     8
 71
     3
 72
    16
 73
    12
 74
     0
 42
0.0000000001
 43
0.0000000001
 40
0.0703564994438134
 40
0.0703564994438134
 40
0.0703564994438134
 40
0.0703564994438134
 40
0.1868534384376405
 40
0.1868534384376405
 40
0.3882039381025704
 40
0.3882039381025704
 40
0.6369884515580537
 40
0.6369884515580537
 40
0.9789168335712673
 40
0.9789168335712673
 40
0.9801012620593542
 40
0.9801012620593542
 40
0.9801012620593542
 40
0.9801012620593542
 10
-172.6181710468073
 20
910.1113836443639
 30
0.0
 10
-173.0002121016573
 20
910.1576772884095
 30
0.0
 10
-173.3778839548452
 20
910.2321647616143
 30
0.0
 10
-174.3829162863252
 20
910.5109748515628
 30
0.0
 10
-174.9688566861193
 20
910.7640381213245
 30
0.0
 10
-176.1407746415581
 20
911.4587836129935
 30
0.0
 10
-176.6834498948777
 20
911.9242724782193
 30
0.0
 10
-177.725449866448
 20
913.1210048327245
 30
0.0
 10
-178.1437742711776
 20
913.899015860486
 30
0.0
 10
-178.3821342839665
 20
914.6679609650377
 30
0.0
 10
-178.3829549953251
 20
914.670615405927
 30
0.0
 10
-178.3837735970847
 20
914.673269879926
 30
0.0
  0
LINE
  5
174
330
2
100
AcDbEntity
  8
GEB-KONTUR-A
 48
25.0
100
AcDbLine
 10
163.9597994414792
 20
911.4593454684538
 30
0.0
 11
165.4494177594545
 21
910.822863768576
 31
0.0
  0
LINE
  5
175
330
2
100
AcDbEntity
  8
GEB-KONTUR-A
 48
25.0
100
AcDbLine
 10
192.0000001365109
 20
910.0693195873855
 30
0.0
 11
194.7612291794929
 21
910.8091820468573
 31
0.0
  0
LINE
  5
176
330
2
100
AcDbEntity
  8
GEB-KONTUR-A
 48
25.0
100
AcDbLine
 10
192.0000000387182
 20
908.4616126878136
 30
0.0
 11
192.0000001365109
 21
910.0693195873855
 31
0.0
  0
LINE
  5
177
330
2
100
AcDbEntity
  8
GEB-KONTUR-A
 48
25.0
100
AcDbLine
 10
192.0000001370049
 20
891.9225595063869
 30
0.0
 11
192.0000000387182
 21
893.5383871483043
 31
0.0
  0
LINE
  5
178
330
2
100
AcDbEntity
  8
GEB-KONTUR-A
 48
25.0
100
AcDbLine
 10
194.3964541133075
 20
891.2843996832011
 30
0.0
 11
192.0000001370049
 21
891.9225595063869
 31
0.0
  0
SPLINE
  5
179
330
2
100
AcDbEntity
  8
GEB-KONTUR-A
 48
25.0
100
AcDbSpline
210
0.0
220
0.0
230
1.0
 70
     8
 71
     3
 72
    14
 73
    10
 74
     0
 42
0.0000000001
 43
0.0000000001
 40
-0.8466337268532285
 40
-0.8466337268532285
 40
-0.8466337268532285
 40
-0.8466337268532285
 40
-0.5938328199230288
 40
-0.5938328199230288
 40
-0.3404721081700294
 40
-0.3404721081700294
 40
-0.1488213939438803
 40
-0.1488213939438803
 40
0.0
 40
0.0
 40
0.0
 40
0.0
 10
200.3385626817631
 20
838.5000000270077
 30
0.0
 10
199.9922827109973
 20
838.1946950351798
 30
0.0
 10
199.577353169383
 20
837.9349623449948
 30
0.0
 10
198.618015264431
 20
837.574986421378
 30
0.0
 10
198.0676932815508
 20
837.4728992517827
 30
0.0
 10
197.016315883536
 20
837.5317336583739
 30
0.0
 10
196.5378911080077
 20
837.6351029760268
 30
0.0
 10
195.6921819591323
 20
838.0126065795703
 30
0.0
 10
195.3306329870222
 20
838.2409989952485
 30
0.0
 10
194.9999999999862
 20
838.5418520545529
 30
0.0
  0
SPLINE
  5
17A
330
2
100
AcDbEntity
  8
GEB-KONTUR-A
 48
25.0
100
AcDbSpline
210
0.0
220
0.0
230
1.0
 70
    24
 71
     3
 72
     8
 73
     4
 74
     0
 42
0.0000000001
 43
0.0000000001
 40
-1.341629333284428
 40
-1.341629333284428
 40
-1.341629333284428
 40
-1.341629333284428
 40
-0.0500000000021548
 40
-0.0500000000021548
 40
-0.0500000000021548
 40
-0.0500000000021548
 10
194.9999999999995
 20
838.5418520545409
 30
0.0
 10
194.9999999999995
 20
842.8472831654818
 30
0.0
 10
194.9999999999996
 20
847.1527142764225
 30
0.0
 10
194.9999999999996
 20
851.4581453873633
 30
0.0
  0
SPLINE
  5
17B
330
2
100
AcDbEntity
  8
GEB-KONTUR-A
 48
25.0
100
AcDbSpline
210
0.0
220
0.0
230
1.0
 70
     8
 71
     3
 72
    14
 73
    10
 74
     0
 42
0.0000000001
 43
0.0000000001
 40
-0.9886268226956014
 40
-0.9886268226956014
 40
-0.9886268226956014
 40
-0.9886268226956014
 40
-0.8447121254361372
 40
-0.8447121254361372
 40
-0.7138669925887835
 40
-0.7138669925887835
 40
-0.4627922123577968
 40
-0.4627922123577968
 40
-0.0051773067516854
 40
-0.0051773067516854
 40
-0.0051773067516854
 40
-0.0051773067516854
 10
194.9999999999995
 20
851.4581453873633
 30
0.0
 10
195.2644411261934
 20
851.6987731411482
 30
0.0
 10
195.549284170983
 20
851.8934265009802
 30
0.0
 10
196.1087193733185
 20
852.1852425885658
 30
0.0
 10
196.3791610379855
 20
852.2882722440156
 30
0.0
 10
197.1604525506862
 20
852.4998575365463
 30
0.0
 10
197.6580910306692
 20
852.5260782903304
 30
0.0
 10
198.949279641088
 20
852.3888308113244
 30
0.0
 10
199.722163672248
 20
852.0434705051968
 30
0.0
 10
200.3385625431508
 20
851.4999999216808
 30
0.0
  0
SPLINE
  5
17C
330
2
100
AcDbEntity
  8
GEB-KONTUR-A
 48
25.0
100
AcDbSpline
210
0.0
220
0.0
230
1.0
 70
     8
 71
     3
 72
    16
 73
    12
 74
     0
 42
0.0000000001
 43
0.0000000001
 40
-0.7820896834128805
 40
-0.7820896834128805
 40
-0.7820896834128805
 40
-0.7820896834128805
 40
-0.7337865775011558
 40
-0.7337865775011558
 40
-0.581338228498448
 40
-0.581338228498448
 40
-0.3657401901981645
 40
-0.3657401901981645
 40
-0.0105141134628433
 40
-0.0105141134628433
 40
0.0
 40
0.0
 40
0.0
 40
0.0
 10
200.3385625431508
 20
851.4999999216808
 30
0.0
 10
200.3714144829565
 20
851.4710272646434
 30
0.0
 10
200.406291574179
 20
851.4441100089838
 30
0.0
 10
200.5586441222873
 20
851.3419182393176
 30
0.0
 10
200.6898524791297
 20
851.2888548143676
 30
0.0
 10
201.0261877902443
 20
851.2305400349939
 30
0.0
 10
201.2229103149421
 20
851.2579528134047
 30
0.0
 10
201.6709926700983
 20
851.4489680177151
 30
0.0
 10
201.812213400686
 20
851.6664590974587
 30
0.0
 10
201.8207570844888
 20
851.6787226065886
 30
0.0
 10
201.8208798573996
 20
851.6788991970662
 30
0.0
 10
201.8208798573996
 20
851.6788991970662
 30
0.0
  0
SPLINE
  5
17D
330
2
100
AcDbEntity
  8
GEB-KONTUR-A
 48
25.0
100
AcDbSpline
210
0.0
220
0.0
230
1.0
 70
     8
 71
     3
 72
    14
 73
    10
 74
     0
 42
0.0000000001
 43
0.0000000001
 40
-2.394888250090414
 40
-2.394888250090414
 40
-2.394888250090414
 40
-2.394888250090414
 40
-1.893532895768538
 40
-1.893532895768538
 40
-1.563398747435744
 40
-1.563398747435744
 40
-1.35528279490064
 40
-1.35528279490064
 40
-1.343389756734089
 40
-1.343389756734089
 40
-1.343389756734089
 40
-1.343389756734089
 10
201.8208798573996
 20
838.3211000730282
 30
0.0
 10
201.8208798573996
 20
838.3211000730289
 30
0.0
 10
201.6736258055061
 20
838.5556001018839
 30
0.0
 10
201.1811241807677
 20
838.7558585579112
 30
0.0
 10
200.9528935834924
 20
838.7744761161835
 30
0.0
 10
200.5953311186063
 20
838.6756439379082
 30
0.0
 10
200.4667840371828
 20
838.6079462252663
 30
0.0
 10
200.3511227896498
 20
838.5109368819414
 30
0.0
 10
200.3448493457663
 20
838.5055443305695
 30
0.0
 10
200.3385626817631
 20
838.5000000270077
 30
0.0
  0
ARC
  5
17E
330
2
100
AcDbEntity
  8
GEB-KONTUR-A
 48
25.0
100
AcDbCircle
 10
-204.2400000000004
 20
1010.5
 30
0.0
 40
3.500000000000022
100
AcDbArc
 50
90.0
 51
180.0
  0
LINE
  5
17F
330
2
100
AcDbEntity
  8
GEB-KONTUR-A
 48
25.0
100
AcDbLine
 10
-204.2400000000005
 20
1014.0
 30
0.0
 11
-187.0610916541775
 21
1014.0
 31
0.0
  0
LINE
  5
180
330
2
100
AcDbEntity
  8
GEB-KONTUR-A
 48
25.0
100
AcDbLine
 10
-204.2400000000004
 20
938.0
 30
0.0
 11
-187.0577980512024
 21
938.0
 31
0.0
  0
ARC
  5
181
330
2
100
AcDbEntity
  8
GEB-KONTUR-A
 48
25.0
100
AcDbCircle
 10
-204.2400000000004
 20
941.4999999999997
 30
0.0
 40
3.499999999999987
100
AcDbArc
 50
180.0
 51
270.0
  0
SPLINE
  5
182
330
2
100
AcDbEntity
  8
GEB-KONTUR-A
 48
25.0
100
AcDbSpline
210
0.0
220
0.0
230
1.0
 70
     8
 71
     3
 72
    20
 73
    16
 74
     0
 42
0.0000000001
 43
0.0000000001
 40
-1.216570648487064
 40
-1.216570648487064
 40
-1.216570648487064
 40
-1.216570648487064
 40
-1.103146463595475
 40
-1.103146463595475
 40
-1.037243361929062
 40
-1.037243361929062
 40
-0.9713402602626498
 40
-0.9713402602626498
 40
-0.8866022218273377
 40
-0.8866022218273377
 40
-0.8018641833920261
 40
-0.8018641833920261
 40
-0.667838757574538
 40
-0.667838757574538
 40
-0.5574514811009145
 40
-0.5574514811009145
 40
-0.5574514811009145
 40
-0.5574514811009145
 10
-181.5596601124981
 20
941.5
 30
0.0
 10
-181.5596601124981
 20
941.1219193836945
 30
0.0
 10
-181.6641658094986
 20
940.6804227350239
 30
0.0
 10
-181.921451453596
 20
940.1408689639934
 30
0.0
 10
-182.048463541462
 20
939.936742865818
 30
0.0
 10
-182.3463542833986
 20
939.5625041351951
 30
0.0
 10
-182.5169534431243
 20
939.3921691129264
 30
0.0
 10
-182.9004774238735
 20
939.0680533046063
 30
0.0
 10
-183.1566519812742
 20
938.8948910664897
 30
0.0
 10
-183.6998111654884
 20
938.6036730938625
 30
0.0
 10
-183.9865111971145
 20
938.4850868636441
 30
0.0
 10
-184.6776272070472
 20
938.2524752950676
 30
0.0
 10
-185.1551338247213
 20
938.1472798156494
 30
0.0
 10
-186.0381818154436
 20
938.0328384447791
 30
0.0
 10
-186.4414297836096
 20
938.0087330971036
 30
0.0
 10
-186.8208798574003
 20
938.0020748816555
 30
0.0
  0
SPLINE
  5
183
330
2
100
AcDbEntity
  8
GEB-KONTUR-A
 48
25.0
100
AcDbSpline
210
0.0
220
0.0
230
1.0
 70
     8
 71
     3
 72
    20
 73
    16
 74
     0
 42
0.0000000001
 43
0.0000000001
 40
0.5338133317570503
 40
0.5338133317570503
 40
0.5338133317570503
 40
0.5338133317570503
 40
0.6678387575745388
 40
0.6678387575745388
 40
0.8018641833920272
 40
0.8018641833920272
 40
0.8866022218273389
 40
0.8866022218273389
 40
0.9713402602626505
 40
0.9713402602626505
 40
1.037243361929064
 40
1.037243361929064
 40
1.103146463595477
 40
1.103146463595477
 40
1.216570648487064
 40
1.216570648487064
 40
1.216570648487064
 40
1.216570648487064
 10
-187.0610916541774
 20
1014.0
 30
0.0
 10
-186.614340234786
 20
1014.0
 30
0.0
 10
-186.1235849883836
 20
1013.978229646979
 30
0.0
 10
-185.1551338247213
 20
1013.85272018435
 30
0.0
 10
-184.6776272070472
 20
1013.747524704932
 30
0.0
 10
-183.9865111971145
 20
1013.514913136356
 30
0.0
 10
-183.6998111654884
 20
1013.396326906137
 30
0.0
 10
-183.1566519812744
 20
1013.10510893351
 30
0.0
 10
-182.9004774238735
 20
1012.931946695393
 30
0.0
 10
-182.5169534431243
 20
1012.607830887073
 30
0.0
 10
-182.3463542833986
 20
1012.437495864805
 30
0.0
 10
-182.048463541462
 20
1012.063257134181
 30
0.0
 10
-181.921451453596
 20
1011.859131036006
 30
0.0
 10
-181.6641658094986
 20
1011.319577264976
 30
0.0
 10
-181.5596601124981
 20
1010.878080616305
 30
0.0
 10
-181.5596601124981
 20
1010.5
 30
0.0
  0
LINE
  5
184
330
2
100
AcDbEntity
  8
GEB-KONTUR-A
 48
25.0
100
AcDbLine
 10
-175.5606546620922
 20
1013.2
 30
0.0
 11
-163.4362990091087
 21
1013.2
 31
0.0
  0
LINE
  5
185
330
2
100
AcDbEntity
  8
GEB-KONTUR-A
 48
25.0
100
AcDbLine
 10
-163.4362990091087
 20
1013.2
 30
0.0
 11
-169.4984768356007
 21
1002.699999999986
 31
0.0
  0
LINE
  5
186
330
2
100
AcDbEntity
  8
GEB-KONTUR-A
 48
25.0
100
AcDbLine
 10
-169.4984768356007
 20
1002.699999999986
 30
0.0
 11
-175.5606546620922
 21
1013.2
 31
0.0
  0
LINE
  5
187
330
2
100
AcDbEntity
  8
GEB-KONTUR-A
 48
25.0
100
AcDbLine
 10
-169.4984768356004
 20
1005.699999999899
 30
0.0
 11
-166.0343752203828
 21
1011.700000000045
 31
0.0
  0
LINE
  5
188
330
2
100
AcDbEntity
  8
GEB-KONTUR-A
 48
25.0
100
AcDbLine
 10
-172.9625784508179
 20
1011.700000000045
 30
0.0
 11
-169.4984768356004
 21
1005.699999999899
 31
0.0
  0
LINE
  5
189
330
2
100
AcDbEntity
  8
GEB-KONTUR-A
 48
25.0
100
AcDbLine
 10
-166.0343752203828
 20
1011.700000000045
 30
0.0
 11
-172.9625784508179
 21
1011.700000000045
 31
0.0
  0
LINE
  5
18A
330
2
100
AcDbEntity
  8
GEB-KONTUR-A
 48
25.0
100
AcDbLine
 10
163.4362990091078
 20
1013.2
 30
0.0
 11
175.5606546620912
 21
1013.2
 31
0.0
  0
LINE
  5
18B
330
2
100
AcDbEntity
  8
GEB-KONTUR-A
 48
25.0
100
AcDbLine
 10
175.5606546620912
 20
1013.2
 30
0.0
 11
169.4984768355995
 21
1002.699999999985
 31
0.0
  0
LINE
  5
18C
330
2
100
AcDbEntity
  8
GEB-KONTUR-A
 48
25.0
100
AcDbLine
 10
169.4984768355995
 20
1002.699999999985
 30
0.0
 11
163.4362990091078
 21
1013.2
 31
0.0
  0
LINE
  5
18D
330
2
100
AcDbEntity
  8
GEB-KONTUR-A
 48
25.0
100
AcDbLine
 10
169.4984768355995
 20
1005.700000000072
 30
0.0
 11
172.962578450667
 21
1011.699999999958
 31
0.0
  0
LINE
  5
18E
330
2
100
AcDbEntity
  8
GEB-KONTUR-A
 48
25.0
100
AcDbLine
 10
166.0343752205321
 20
1011.699999999958
 30
0.0
 11
169.4984768355995
 21
1005.700000000072
 31
0.0
  0
LINE
  5
18F
330
2
100
AcDbEntity
  8
GEB-KONTUR-A
 48
25.0
100
AcDbLine
 10
172.962578450667
 20
1011.699999999958
 30
0.0
 11
166.0343752205321
 21
1011.699999999958
 31
0.0
  0
LINE
  5
190
330
2
100
AcDbEntity
  8
GEB-KONTUR-A
 48
25.0
100
AcDbLine
 10
-186.8208798574003
 20
938.0
 30
0.0
 11
-171.9124904855275
 21
938.0
 31
0.0
  0
LINE
  5
191
330
2
100
AcDbEntity
  8
GEB-KONTUR-A
 48
25.0
100
AcDbLine
 10
-181.5596601124981
 20
999.2499999999999
 30
0.0
 11
-181.5596601124981
 21
941.5
 31
0.0
  0
LINE
  5
192
330
2
100
AcDbEntity
  8
GEB-KONTUR-A
 48
25.0
100
AcDbLine
 10
-181.5596601124981
 20
1010.5
 30
0.0
 11
-181.5596601124981
 21
1000.75
 31
0.0
  0
LINE
  5
193
330
2
100
AcDbEntity
  8
GEB-KONTUR-A
 48
25.0
100
AcDbLine
 10
-207.7400000000004
 20
941.5
 30
0.0
 11
-207.7400000000004
 21
999.2499999999999
 31
0.0
  0
LINE
  5
194
330
2
100
AcDbEntity
  8
GEB-KONTUR-A
 48
25.0
100
AcDbLine
 10
-207.7400000000004
 20
1000.75
 30
0.0
 11
-207.7400000000004
 21
1010.5
 31
0.0
  0
LINE
  5
195
330
2
100
AcDbEntity
  8
GEB-KONTUR-A
 48
25.0
100
AcDbLine
 10
-163.4900000000004
 20
1000.750000000017
 30
0.0
 11
-163.4899999999983
 21
999.2499999999964
 31
0.0
  0
LINE
  5
196
330
2
100
AcDbEntity
  8
GEB-KONTUR-A
 48
25.0
100
AcDbLine
 10
-163.4899999999983
 20
999.2499999999964
 30
0.0
 11
-181.5596601124981
 21
999.2499999999999
 31
0.0
  0
LINE
  5
197
330
2
100
AcDbEntity
  8
GEB-KONTUR-A
 48
25.0
100
AcDbLine
 10
-207.7400000000005
 20
999.2499999999999
 30
0.0
 11
-181.5596601124981
 21
999.2499999999999
 31
0.0
  0
LINE
  5
198
330
2
100
AcDbEntity
  8
GEB-KONTUR-A
 48
25.0
100
AcDbLine
 10
-206.2400000000004
 20
1000.75
 30
0.0
 11
-206.2400000000004
 21
999.2499999999999
 31
0.0
  0
LINE
  5
199
330
2
100
AcDbEntity
  8
GEB-KONTUR-A
 48
25.0
100
AcDbLine
 10
-181.5596601124981
 20
1000.75
 30
0.0
 11
-207.7400000000004
 21
1000.75
 31
0.0
  0
LINE
  5
19A
330
2
100
AcDbEntity
  8
GEB-KONTUR-A
 48
25.0
100
AcDbLine
 10
-181.5596601124981
 20
1000.75
 30
0.0
 11
-163.4900000000004
 21
1000.750000000017
 31
0.0
  0
LINE
  5
19B
330
2
100
AcDbEntity
  8
GEB-KONTUR-A
 48
25.0
100
AcDbLine
 10
-207.7400000000004
 20
999.2499999999999
 30
0.0
 11
-207.7400000000004
 21
1000.75
 31
0.0
  0
LINE
  5
19C
330
2
100
AcDbEntity
  8
GEB-KONTUR-A
 48
25.0
100
AcDbLine
 10
197.5241763042927
 20
890.4515079777183
 30
0.0
 11
191.9999999898221
 21
891.9317007358911
 31
0.0
  0
LINE
  5
19D
330
2
100
AcDbEntity
  8
GEB-KONTUR-A
 48
25.0
100
AcDbLine
 10
201.820880541944
 20
915.9738894302074
 30
0.0
 11
201.820880541944
 21
886.027130932374
 31
0.0
  0
LINE
  5
19E
330
2
100
AcDbEntity
  8
GEB-KONTUR-A
 48
25.0
100
AcDbLine
 10
162.7499999999995
 20
999.2500000000003
 30
0.0
 11
162.7499999999995
 21
1000.75
 31
0.0
  0
SPLINE
  5
19F
330
2
100
AcDbEntity
  8
GEB-KONTUR-A
 48
25.0
100
AcDbSpline
210
0.0
220
0.0
230
1.0
 70
    24
 71
     3
 72
    14
 73
    10
 74
     0
 42
0.0000000001
 43
0.0000000001
 40
-0.7879142789492796
 40
-0.7879142789492796
 40
-0.7879142789492796
 40
-0.7879142789492796
 40
-0.5912549530099774
 40
-0.5912549530099774
 40
-0.3985279536940325
 40
-0.3985279536940325
 40
-0.1980592209630333
 40
-0.1980592209630333
 40
0.0
 40
0.0
 40
0.0
 40
0.0
 10
201.8208798573996
 20
999.2500000000003
 30
0.0
 10
201.8208798573996
 20
999.2500000000003
 30
0.0
 10
201.6919635558033
 20
999.2500000000003
 30
0.0
 10
201.196015502515
 20
999.2500000000003
 30
0.0
 10
200.8384128644485
 20
999.2500000000003
 30
0.0
 10
199.9200715019817
 20
999.2500000000003
 30
0.0
 10
199.3609988712383
 20
999.2500000000003
 30
0.0
 10
198.1347842459704
 20
999.2500000000003
 30
0.0
 10
197.4810772606097
 20
999.2500000000003
 30
0.0
 10
196.8208798573996
 20
999.2500000000003
 30
0.0
  0
LINE
  5
1A0
330
2
100
AcDbEntity
  8
GEB-KONTUR-A
 48
25.0
100
AcDbLine
 10
196.8208798573996
 20
999.2500000000003
 30
0.0
 11
162.7499999999995
 21
999.2500000000003
 31
0.0
  0
LINE
  5
1A1
330
2
100
AcDbEntity
  8
GEB-KONTUR-A
 48
25.0
100
AcDbLine
 10
200.3649536980651
 20
1000.75
 30
0.0
 11
200.3649536980651
 21
999.2500000000003
 31
0.0
  0
LINE
  5
1A2
330
2
100
AcDbEntity
  8
GEB-KONTUR-A
 48
25.0
100
AcDbLine
 10
201.8208798573996
 20
1000.75
 30
0.0
 11
201.8208798573996
 21
999.2500000000003
 31
0.0
  0
SPLINE
  5
1A3
330
2
100
AcDbEntity
  8
GEB-KONTUR-A
 48
25.0
100
AcDbSpline
210
0.0
220
0.0
230
1.0
 70
    24
 71
     3
 72
    14
 73
    10
 74
     0
 42
0.0000000001
 43
0.0000000001
 40
-0.7879142789492793
 40
-0.7879142789492793
 40
-0.7879142789492793
 40
-0.7879142789492793
 40
-0.5912549530099714
 40
-0.5912549530099714
 40
-0.3985279536940336
 40
-0.3985279536940336
 40
-0.1980592209630383
 40
-0.1980592209630383
 40
0.0
 40
0.0
 40
0.0
 40
0.0
 10
196.8208798573996
 20
1000.75
 30
0.0
 10
197.476410943864
 20
1000.75
 30
0.0
 10
198.1255884871202
 20
1000.75
 30
0.0
 10
199.3250555347679
 20
1000.75
 30
0.0
 10
199.8658981288644
 20
1000.75
 30
0.0
 10
200.8010232332601
 20
1000.75
 30
0.0
 10
201.1791278468776
 20
1000.75
 30
0.0
 10
201.6901216740381
 20
1000.75
 30
0.0
 10
201.8208798573996
 20
1000.75
 30
0.0
 10
201.8208798573996
 20
1000.75
 30
0.0
  0
LINE
  5
1A4
330
2
100
AcDbEntity
  8
GEB-KONTUR-A
 48
25.0
100
AcDbLine
 10
162.7499999999995
 20
1000.75
 30
0.0
 11
196.8208798573996
 21
1000.75
 31
0.0
  0
SPLINE
  5
1A5
330
2
100
AcDbEntity
  8
GEB-KONTUR-A
 48
25.0
100
AcDbSpline
210
0.0
220
0.0
230
1.0
 70
    12
 71
     3
 72
    14
 73
    10
 74
     0
 42
0.0000000001
 43
0.0000000001
 40
-2.651262507401031
 40
-2.651262507401031
 40
-2.651262507401031
 40
-2.651262507401031
 40
-2.206851770734285
 40
-2.206851770734285
 40
-1.764283427393197
 40
-1.764283427393197
 40
-1.381379899491879
 40
-1.381379899491879
 40
-1.081937357076546
 40
-1.081937357076546
 40
-1.081937357076546
 40
-1.081937357076546
 10
201.8208798573996
 20
1062.00003980699
 30
0.0
 41
1.0
 10
201.8208798573996
 20
1064.239677513562
 30
0.0
 41
1.0
 10
201.3166448477458
 20
1066.451737645722
 30
0.0
 41
1.0
 10
199.4056581048557
 20
1070.457418733511
 30
0.0
 41
1.0
 10
198.003281775537
 20
1072.240038211492
 30
0.0
 41
1.0
 10
194.7989255182502
 20
1074.846105884393
 30
0.0
 41
1.0
 10
193.0791669596823
 20
1075.766142812005
 30
0.0
 41
1.0
 10
189.8166101412635
 20
1076.774042063461
 30
0.0
 41
1.0
 10
188.3208798573994
 20
1077.00003980699
 30
0.0
 41
1.0
 10
186.8208798573994
 20
1077.00003980699
 30
0.0
 41
1.0
  0
SPLINE
  5
1A6
330
2
100
AcDbEntity
  8
GEB-KONTUR-A
 48
25.0
100
AcDbSpline
210
0.0
220
0.0
230
1.0
 70
    28
 71
     3
 72
    15
 73
    11
 74
     0
 42
0.0000000001
 43
0.0000000001
 40
-1.081937357076537
 40
-1.081937357076537
 40
-1.081937357076537
 40
-1.081937357076537
 40
-0.8114578486710279
 40
-0.8114578486710279
 40
-0.5409718991140183
 40
-0.5409718991140183
 40
-0.5409718991140183
 40
-0.2704834495537007
 40
-0.2704834495537007
 40
-0.0000000000000014
 40
-0.0000000000000014
 40
-0.0000000000000014
 40
-0.0000000000000014
 10
186.8208798573994
 20
1077.00003980699
 30
0.0
 41
1.0
 10
185.9176031338359
 20
1077.00003980699
 30
0.0
 41
1.0
 10
185.0161856239941
 20
1077.00003980699
 30
0.0
 41
1.0
 10
183.2128435704036
 20
1077.00003980699
 30
0.0
 41
1.0
 10
182.3112845546408
 20
1077.00003980699
 30
0.0
 41
1.0
 10
181.4096659157901
 20
1077.00003980699
 30
0.0
 41
1.0
 10
180.508038943606
 20
1077.00003980699
 30
0.0
 41
1.0
 10
179.6064096073778
 20
1077.00003980699
 30
0.0
 41
1.0
 10
177.8031698976839
 20
1077.00003980699
 30
0.0
 41
1.0
 10
176.9015584146744
 20
1077.00003980699
 30
0.0
 41
1.0
 10
175.9999469236594
 20
1077.00003980699
 30
0.0
 41
1.0
  0
SPLINE
  5
1A7
330
2
100
AcDbEntity
  8
GEB-KONTUR-A
 48
25.0
100
AcDbSpline
210
0.0
220
0.0
230
1.0
 70
     8
 71
     3
 72
    18
 73
    14
 74
     0
 42
0.0000000001
 43
0.0000000001
 40
-0.0011193378148386
 40
-0.0011193378148386
 40
-0.0011193378148386
 40
-0.0011193378148386
 40
0.0
 40
0.0
 40
0.1149790787519741
 40
0.1149790787519741
 40
0.2346399683311417
 40
0.2346399683311417
 40
0.4343867920283911
 40
0.4343867920283911
 40
0.630683438373417
 40
0.630683438373417
 40
0.8205146385314151
 40
0.8205146385314151
 40
0.8205146385314151
 40
0.8205146385314151
 10
173.9999701444675
 20
1072.00003980699
 30
0.0
 10
174.0016387381577
 20
1072.003377035884
 30
0.0
 10
174.003306495808
 20
1072.006714680867
 30
0.0
 10
174.176200765401
 20
1072.352940049061
 30
0.0
 10
174.3381631563361
 20
1072.699176306424
 30
0.0
 10
174.6503869226507
 20
1073.400313725258
 30
0.0
 10
174.798879758449
 20
1073.752708456146
 30
0.0
 10
175.166336213589
 20
1074.659708497528
 30
0.0
 10
175.3624204266403
 20
1075.18259032305
 30
0.0
 10
175.6811587772015
 20
1076.062832160088
 30
0.0
 10
175.8014546242141
 20
1076.412771797214
 30
0.0
 10
175.9605067607814
 20
1076.880578277872
 30
0.0
 10
175.9999469236595
 20
1077.00003980699
 30
0.0
 10
175.9999469236595
 20
1077.00003980699
 30
0.0
  0
ARC
  5
1A8
330
2
100
AcDbEntity
  8
GEB-KONTUR-A
 48
25.0
100
AcDbCircle
 10
-170.0000000000004
 20
1069.0
 30
0.0
 40
10.0
100
AcDbArc
 50
53.13048248459089
 51
126.8695175154091
  0
SPLINE
  5
1A9
330
2
100
AcDbEntity
  8
GEB-KONTUR-A
 48
25.0
100
AcDbSpline
210
0.0
220
0.0
230
1.0
 70
     8
 71
     3
 72
    18
 73
    14
 74
     0
 42
0.0000000001
 43
0.0000000001
 40
-0.0011182955634868
 40
-0.0011182955634868
 40
-0.0011182955634868
 40
-0.0011182955634868
 40
0.0
 40
0.0
 40
0.1216222777177361
 40
0.1216222777177361
 40
0.2445700811793019
 40
0.2445700811793019
 40
0.4438857839649937
 40
0.4438857839649937
 40
0.6341052835100295
 40
0.6341052835100295
 40
0.8204338821668757
 40
0.8204338821668757
 40
0.8204338821668757
 40
0.8204338821668757
 10
-173.9999701444484
 20
1072.00003980699
 30
0.0
 10
-174.0016371844575
 20
1072.003373928483
 30
0.0
 10
-174.0033033902932
 20
1072.006708465917
 30
0.0
 10
-174.1860893593927
 20
1072.3727417995
 30
0.0
 10
-174.3568156638314
 20
1072.73912087374
 30
0.0
 10
-174.6799148782455
 20
1073.468934086379
 30
0.0
 10
-174.8309405036021
 20
1073.829767533544
 30
0.0
 10
-175.1965850308044
 20
1074.738492482275
 30
0.0
 10
-175.3889097960024
 20
1075.254101020233
 30
0.0
 10
-175.6954511475754
 20
1076.104120254242
 30
0.0
 10
-175.8095750621033
 20
1076.436497500142
 30
0.0
 10
-175.961931609248
 20
1076.884932917545
 30
0.0
 10
-175.9999469236468
 20
1077.00003980699
 30
0.0
 10
-175.9999469236468
 20
1077.00003980699
 30
0.0
  0
LINE
  5
1AA
330
2
100
AcDbEntity
  8
GEB-KONTUR-A
 48
25.0
100
AcDbLine
 10
-175.9999469236469
 20
1077.00003980699
 30
0.0
 11
-186.8208798574003
 21
1077.00003980699
 31
0.0
  0
ARC
  5
1AB
330
2
100
AcDbEntity
  8
GEB-KONTUR-A
 48
25.0
100
AcDbCircle
 10
-186.8208798574005
 20
1062.00003980699
 30
0.0
 40
14.99999999999996
100
AcDbArc
 50
90.0
 51
180.0
  0
LINE
  5
1AC
330
2
100
AcDbEntity
  8
GEB-KONTUR-A
 48
25.0
100
AcDbLine
 10
-201.8208798574004
 20
1062.00003980699
 30
0.0
 11
-201.8208798574004
 21
1014.0
 31
0.0
  0
ARC
  5
1AD
330
2
100
AcDbEntity
  8
GEB-KONTUR-A
 48
25.0
100
AcDbCircle
 10
169.9999999999995
 20
1068.99999999996
 30
0.0
 40
10.00000000004002
100
AcDbArc
 50
53.13048248466777
 51
126.8695175153322
  0
SPLINE
  5
1AE
330
2
100
AcDbEntity
  8
GEB-KONTUR-A
 48
25.0
100
AcDbSpline
210
0.0
220
0.0
230
1.0
 70
    28
 71
     3
 72
    10
 73
     6
 74
     0
 42
0.0000000001
 43
0.0000000001
 40
-27.89771873300874
 40
-27.89771873300874
 40
-27.89771873300874
 40
-27.89771873300874
 40
-25.6698231043001
 40
-25.6698231043001
 40
-25.13854725917931
 40
-25.13854725917931
 40
-25.13854725917931
 40
-25.13854725917931
 10
201.8208798573996
 20
810.7299314404158
 30
0.0
 41
1.0
 10
201.8208798573996
 20
818.1562585576356
 30
0.0
 41
1.0
 10
201.8208798573996
 20
825.5824884636011
 30
0.0
 41
1.0
 10
201.8208798573996
 20
834.7794034053235
 30
0.0
 41
1.0
 10
201.8208798573996
 20
836.5502874690067
 30
0.0
 41
1.0
 10
201.8208798573996
 20
838.3211000730284
 30
0.0
 41
1.0
  0
SPLINE
  5
1AF
330
2
100
AcDbEntity
  8
GEB-KONTUR-A
 48
25.0
100
AcDbSpline
210
0.0
220
0.0
230
1.0
 70
     8
 71
     3
 72
    10
 73
     6
 74
     0
 42
0.0000000001
 43
0.0000000001
 40
-1.335084137492758
 40
-1.335084137492758
 40
-1.335084137492758
 40
-1.335084137492758
 40
-1.023519726729705
 40
-1.023519726729705
 40
-1.009109797038754
 40
-1.009109797038754
 40
-1.009109797038754
 40
-1.009109797038754
 10
201.8208798573996
 20
886.0271341678581
 30
0.0
 10
201.8208798573996
 20
886.0271342009619
 30
0.0
 10
201.8017563361292
 20
886.1392506662719
 30
0.0
 10
201.7046017053778
 20
886.4512463524613
 30
0.0
 10
201.7001558097647
 20
886.4653481667915
 30
0.0
 10
201.6955542339499
 20
886.4797494865158
 30
0.0
  0
SPLINE
  5
1B0
330
2
100
AcDbEntity
  8
GEB-KONTUR-A
 48
25.0
100
AcDbSpline
210
0.0
220
0.0
230
1.0
 70
     8
 71
     3
 72
    10
 73
     6
 74
     0
 42
0.0000000001
 43
0.0000000001
 40
-0.133178967942302
 40
-0.133178967942302
 40
-0.133178967942302
 40
-0.133178967942302
 40
-0.1172845020338716
 40
-0.1172845020338716
 40
0.0
 40
0.0
 40
0.0
 40
0.0
 10
201.7443453519296
 20
915.6816653888581
 30
0.0
 10
201.7511867864516
 20
915.7053386992471
 30
0.0
 10
201.7574977018223
 20
915.7277223633593
 30
0.0
 10
201.8061486169071
 20
915.9037067061571
 30
0.0
 10
201.8208798573996
 20
915.9738860323923
 30
0.0
 10
201.8208798573996
 20
915.9738860611945
 30
0.0
  0
SPLINE
  5
1B1
330
2
100
AcDbEntity
  8
GEB-KONTUR-A
 48
25.0
100
AcDbSpline
210
0.0
220
0.0
230
1.0
 70
    28
 71
     3
 72
    16
 73
    12
 74
     0
 42
0.0000000001
 43
0.0000000001
 40
-8.776756458017228
 40
-8.776756458017228
 40
-8.776756458017228
 40
-8.776756458017228
 40
-8.203440382461677
 40
-8.203440382461677
 40
-6.005551513994527
 40
-6.005551513994527
 40
-4.32840701069778
 40
-4.32840701069778
 40
-3.489834759049406
 40
-3.489834759049406
 40
-2.651262507401033
 40
-2.651262507401033
 40
-2.651262507401033
 40
-2.651262507401033
 10
201.8208798573996
 20
1000.75
 30
0.0
 41
1.0
 10
201.8208798573996
 20
1002.661135573572
 30
0.0
 41
1.0
 10
201.8208798573996
 20
1004.571049659239
 30
0.0
 41
1.0
 10
201.8208798573996
 20
1013.800961542501
 30
0.0
 41
1.0
 10
201.8208798573996
 20
1021.101710345828
 30
0.0
 41
1.0
 10
201.8208798573996
 20
1034.072020805116
 30
0.0
 41
1.0
 10
201.8208798573996
 20
1039.731865127003
 30
0.0
 41
1.0
 10
201.8208798573996
 20
1048.111665370372
 30
0.0
 41
1.0
 10
201.8208798573996
 20
1050.885881755597
 30
0.0
 41
1.0
 10
201.8208798573996
 20
1056.422374669907
 30
0.0
 41
1.0
 10
201.8208798573996
 20
1059.182846991087
 30
0.0
 41
1.0
 10
201.8208798573996
 20
1062.00003980699
 30
0.0
 41
1.0
  0
SPLINE
  5
1B2
330
2
100
AcDbEntity
  8
GEB-KONTUR-A
 48
25.0
100
AcDbSpline
210
0.0
220
0.0
230
1.0
 70
    28
 71
     3
 72
    12
 73
     8
 74
     0
 42
0.0000000001
 43
0.0000000001
 40
-23.8027132925843
 40
-23.8027132925843
 40
-23.8027132925843
 40
-23.8027132925843
 40
-22.83597960548049
 40
-22.83597960548049
 40
-21.07463885330876
 40
-21.07463885330876
 40
-20.36800645736404
 40
-20.36800645736404
 40
-20.36800645736404
 40
-20.36800645736404
 10
201.8208798573996
 20
851.6788991970662
 30
0.0
 41
1.0
 10
201.8208798573996
 20
854.9014231325939
 30
0.0
 41
1.0
 10
201.8208798573996
 20
858.1239061764414
 30
0.0
 41
1.0
 10
201.8208798573996
 20
867.2202924862313
 30
0.0
 41
1.0
 10
201.8208798573996
 20
873.0957048004482
 30
0.0
 41
1.0
 10
201.8208798573996
 20
881.3195116078926
 30
0.0
 41
1.0
 10
201.8208798573996
 20
883.673474801181
 30
0.0
 41
1.0
 10
201.8208798573996
 20
886.0271341678581
 30
0.0
 41
1.0
  0
SPLINE
  5
1B3
330
2
100
AcDbEntity
  8
GEB-KONTUR-A
 48
25.0
100
AcDbSpline
210
0.0
220
0.0
230
1.0
 70
    28
 71
     3
 72
    21
 73
    17
 74
     0
 42
0.0000000001
 43
0.0000000001
 40
-17.36946430901027
 40
-17.36946430901027
 40
-17.36946430901027
 40
-17.36946430901027
 40
-16.16247566929342
 40
-16.16247566929342
 40
-16.16247566929342
 40
-14.44252954624495
 40
-14.44252954624495
 40
-12.72258342319648
 40
-12.72258342319648
 40
-12.72258342319648
 40
-11.56195633706265
 40
-11.56195633706265
 40
-10.40132925092883
 40
-10.40132925092883
 40
-10.40132925092883
 40
-8.926738450602288
 40
-8.926738450602288
 40
-8.926738450602288
 40
-8.926738450602288
 10
201.8208798573996
 20
915.9738860611827
 30
0.0
 41
1.0
 10
201.8208798573996
 20
919.9546390580938
 30
0.0
 41
1.0
 10
201.8208798573996
 20
923.909171534394
 30
0.0
 41
1.0
 10
201.8208798573996
 20
927.841735834656
 30
0.0
 41
1.0
 10
201.8208798573996
 20
933.445598621186
 30
0.0
 41
1.0
 10
201.8208798573996
 20
939.0140311270634
 30
0.0
 41
1.0
 10
201.8208798573996
 20
950.1654777037284
 30
0.0
 41
1.0
 10
201.8208798573996
 20
955.7402696304222
 30
0.0
 41
1.0
 10
201.8208798573996
 20
961.3684765462119
 30
0.0
 41
1.0
 10
201.8208798573996
 20
965.1664149265453
 30
0.0
 41
1.0
 10
201.8208798573996
 20
968.9942163838653
 30
0.0
 41
1.0
 10
201.8208798573996
 20
976.7047403818649
 30
0.0
 41
1.0
 10
201.8208798573996
 20
980.5859589702121
 30
0.0
 41
1.0
 10
201.8208798573996
 20
984.4707561225538
 30
0.0
 41
1.0
 10
201.8208798573996
 20
989.4064380572745
 30
0.0
 41
1.0
 10
201.8208798573996
 20
994.3323628810885
 30
0.0
 41
1.0
 10
201.8208798573996
 20
999.2500000000003
 30
0.0
 41
1.0
  0
SPLINE
  5
1B4
330
2
100
AcDbEntity
  8
GEB-KONTUR-A
 48
25.0
100
AcDbSpline
210
0.0
220
0.0
230
1.0
 70
     8
 71
     3
 72
    18
 73
    14
 74
     0
 42
0.0000000001
 43
0.0000000001
 40
-0.0011182955609538
 40
-0.0011182955609538
 40
-0.0011182955609538
 40
-0.0011182955609538
 40
0.0
 40
0.0
 40
0.1216222776183164
 40
0.1216222776183164
 40
0.244570080960876
 40
0.244570080960876
 40
0.4438857835539686
 40
0.4438857835539686
 40
0.6341052829152228
 40
0.6341052829152228
 40
0.820433881392053
 40
0.820433881392053
 40
0.820433881392053
 40
0.820433881392053
 10
166.0000298555315
 20
1072.00003980699
 30
0.0
 10
165.9983628155262
 20
1072.003373928476
 30
0.0
 10
165.996696609683
 20
1072.006708465924
 30
0.0
 10
165.8139106407344
 20
1072.372741799203
 30
0.0
 10
165.6431843361744
 20
1072.739120873685
 30
0.0
 10
165.3200851217377
 20
1073.468934086379
 30
0.0
 10
165.1690594963818
 20
1073.829767533543
 30
0.0
 10
164.8034149691805
 20
1074.738492482274
 30
0.0
 10
164.611090203983
 20
1075.254101020233
 30
0.0
 10
164.3045488524107
 20
1076.104120254242
 30
0.0
 10
164.190424937883
 20
1076.436497500142
 30
0.0
 10
164.0380683907387
 20
1076.884932917545
 30
0.0
 10
164.0000530763397
 20
1077.00003980699
 30
0.0
 10
164.0000530763397
 20
1077.00003980699
 30
0.0
  0
SPLINE
  5
1B5
330
2
100
AcDbEntity
  8
GEB-KONTUR-A
 48
25.0
100
AcDbSpline
210
0.0
220
0.0
230
1.0
 70
     8
 71
     3
 72
    18
 73
    14
 74
     0
 42
0.0000000001
 43
0.0000000001
 40
-0.8191189029633802
 40
-0.8191189029633802
 40
-0.8191189029633802
 40
-0.8191189029633802
 40
-0.8180039195689717
 40
-0.8180039195689717
 40
-0.6967418629461584
 40
-0.6967418629461584
 40
-0.5741582065163647
 40
-0.5741582065163647
 40
-0.3754328373479342
 40
-0.3754328373479342
 40
-0.1857767302685772
 40
-0.1857767302685772
 40
0.0
 40
0.0
 40
0.0
 40
0.0
 10
-166.0000298555524
 20
1072.00003980699
 30
0.0
 10
-165.9983628155415
 20
1072.003373928487
 30
0.0
 10
-165.9966966097094
 20
1072.006708465913
 30
0.0
 10
-165.8139106405461
 20
1072.372741799626
 30
0.0
 10
-165.6431843361592
 20
1072.739120873762
 30
0.0
 10
-165.3200851217553
 20
1073.468934086379
 30
0.0
 10
-165.1690594963987
 20
1073.829767533544
 30
0.0
 10
-164.8034149691963
 20
1074.738492482275
 30
0.0
 10
-164.6110902039983
 20
1075.254101020233
 30
0.0
 10
-164.3045488524253
 20
1076.104120254242
 30
0.0
 10
-164.1904249378976
 20
1076.436497500142
 30
0.0
 10
-164.0380683907528
 20
1076.884932917545
 30
0.0
 10
-164.0000530763538
 20
1077.00003980699
 30
0.0
 10
-164.0000530763538
 20
1077.00003980699
 30
0.0
  0
LINE
  5
1B6
330
2
100
AcDbEntity
  8
GEB-KONTUR-A
 48
25.0
100
AcDbLine
 10
-123.0000000000004
 20
1077.00003980699
 30
0.0
 11
-164.0000530763539
 21
1077.00003980699
 31
0.0
  0
LINE
  5
1B7
330
2
100
AcDbEntity
  8
GEB-KONTUR-A
 48
25.0
100
AcDbLine
 10
164.0000530763397
 20
1077.00003980699
 30
0.0
 11
122.9999999999996
 21
1077.00003980699
 31
0.0
  0
SPLINE
  5
1B8
330
2
100
AcDbEntity
  8
GEB-KONTUR-A
 48
25.0
100
AcDbSpline
210
0.0
220
0.0
230
1.0
 70
     8
 71
     3
 72
    14
 73
    10
 74
     0
 42
0.0000000001
 43
0.0000000001
 40
0.0
 40
0.0
 40
0.0
 40
0.0
 40
0.0859972501352127
 40
0.0859972501352127
 40
0.1708164676883888
 40
0.1708164676883888
 40
0.2622515709787488
 40
0.2622515709787488
 40
0.3095653567452716
 40
0.3095653567452716
 40
0.3095653567452716
 40
0.3095653567452716
 10
194.7612291795842
 20
910.8091820467658
 30
0.0
 10
194.9603844241669
 20
910.8625450553235
 30
0.0
 10
195.1873593740211
 20
910.9233622652499
 30
0.0
 10
195.6981997468313
 20
911.0602403061591
 30
0.0
 10
195.9664019658575
 20
911.1321042318291
 30
0.0
 10
196.5322227689124
 20
911.2837141048178
 30
0.0
 10
196.8251490507267
 20
911.3622027648428
 30
0.0
 10
197.2514319715695
 20
911.4764239101607
 30
0.0
 10
197.3940302400047
 20
911.5146326602323
 30
0.0
 10
197.5331226431976
 20
911.5519020250085
 30
0.0
  0
SPLINE
  5
1B9
330
2
100
AcDbEntity
  8
GEB-KONTUR-A
 48
25.0
100
AcDbSpline
210
0.0
220
0.0
230
1.0
 70
     8
 71
     3
 72
    14
 73
    10
 74
     0
 42
0.0000000001
 43
0.0000000001
 40
0.0000000263692653
 40
0.0000000263692653
 40
0.0000000263692653
 40
0.0000000263692653
 40
0.2618509043495526
 40
0.2618509043495526
 40
0.512844724157665
 40
0.512844724157665
 40
0.7085790947922953
 40
0.7085790947922953
 40
0.8168483489304215
 40
0.8168483489304215
 40
0.8168483489304215
 40
0.8168483489304215
 10
197.5331226431976
 20
911.5519020250085
 30
0.0
 10
198.3009565413065
 20
911.7576406634524
 30
0.0
 10
199.0344091451623
 20
912.1182365423328
 30
0.0
 10
200.299125254252
 20
913.1089140947402
 30
0.0
 10
200.7538771446738
 20
913.6606445851739
 30
0.0
 10
201.332515193095
 20
914.5935015675451
 30
0.0
 10
201.4985689873895
 20
914.9708020464897
 30
0.0
 10
201.6693207717596
 20
915.4330552103774
 30
0.0
 10
201.7131320548176
 20
915.5736584981351
 30
0.0
 10
201.7443453519296
 20
915.6816653888578
 30
0.0
  0
SPLINE
  5
1BA
330
2
100
AcDbEntity
  8
GEB-KONTUR-A
 48
25.0
100
AcDbSpline
210
0.0
220
0.0
230
1.0
 70
     8
 71
     3
 72
    14
 73
    10
 74
     0
 42
0.0000000001
 43
0.0000000001
 40
0.0
 40
0.0
 40
0.0
 40
0.0
 40
0.1463729404401936
 40
0.1463729404401936
 40
0.3356110527081784
 40
0.3356110527081784
 40
0.527430711409199
 40
0.527430711409199
 40
0.7285481243371354
 40
0.7285481243371354
 40
0.7285481243371354
 40
0.7285481243371354
 10
201.69555423395
 20
886.4797494865158
 30
0.0
 10
201.637191926889
 20
886.662403055133
 30
0.0
 10
201.5482532953113
 20
886.911008780844
 30
0.0
 10
201.2424574111962
 20
887.5646489391288
 30
0.0
 10
200.9947310342901
 20
887.9966195853782
 30
0.0
 10
200.2750030857907
 20
888.8826298812764
 30
0.0
 10
199.8315540822561
 20
889.2968901568531
 30
0.0
 10
198.7628741266508
 20
890.0097873941245
 30
0.0
 10
198.1602905246548
 20
890.282114973329
 30
0.0
 10
197.5241764929436
 20
890.4515079271696
 30
0.0
  0
SPLINE
  5
1BB
330
2
100
AcDbEntity
  8
GEB-KONTUR-A
 48
25.0
100
AcDbSpline
210
0.0
220
0.0
230
1.0
 70
    24
 71
     3
 72
    14
 73
    10
 74
     0
 42
0.0000000001
 43
0.0000000001
 40
0.0599395701293165
 40
0.0599395701293165
 40
0.0599395701293165
 40
0.0599395701293165
 40
0.186493444939121
 40
0.186493444939121
 40
0.3196651653467407
 40
0.3196651653467407
 40
0.3961737565990315
 40
0.3961737565990315
 40
0.4725903248180531
 40
0.4725903248180531
 40
0.4725903248180531
 40
0.4725903248180531
 10
197.5241764929435
 20
890.4515079271696
 30
0.0
 10
197.1833524054971
 20
890.5422671245082
 30
0.0
 10
196.8425778044699
 20
890.633013143943
 30
0.0
 10
196.16538676438
 20
890.8133446331461
 30
0.0
 10
195.8066305713636
 20
890.9088790314456
 30
0.0
 10
195.2596076017784
 20
891.054547625532
 30
0.0
 10
195.067558781991
 20
891.1056889543797
 30
0.0
 10
194.7060721382012
 20
891.2019504536429
 30
0.0
 10
194.5429912590535
 20
891.2453778117431
 30
0.0
 10
194.3964541133076
 20
891.2843996832011
 30
0.0
  0
ELLIPSE
  5
1BC
330
2
100
AcDbEntity
  8
GEB-KONTUR-A
 48
25.0
100
AcDbEllipse
 10
186.0000000387181
 20
908.4616127167187
 30
0.0
 11
6.0
 21
0.0000000000000033
 31
0.0
210
0.0
220
0.0
230
1.0
 40
0.2679491924315616
 41
0.0
 42
1.570796329315836
  0
LINE
  5
1BD
330
2
100
AcDbEntity
  8
GEB-KONTUR-A
 48
25.0
100
AcDbLine
 10
192.0000000387182
 20
893.5383871483043
 30
0.0
 11
192.0000000387182
 21
908.4616126878136
 31
0.0
  0
ELLIPSE
  5
1BE
330
2
100
AcDbEntity
  8
GEB-KONTUR-A
 48
25.0
100
AcDbEllipse
 10
158.8766286705569
 20
910.6052062076498
 30
0.0
 11
6.000000000000003
 21
-0.0000000133359701
 31
0.0
210
0.0
220
0.0
230
1.0
 40
0.2679491924315616
 41
0.5601129122748425
 42
0.6211867817603976
  0
ELLIPSE
  5
1BF
330
2
100
AcDbEntity
  8
GEB-KONTUR-A
 48
25.0
100
AcDbEllipse
 10
186.0000000387181
 20
893.5383871221011
 30
0.0
 11
-6.0
 21
-0.0000000000000016
 31
0.0
210
0.0
220
0.0
230
1.0
 40
0.2679491924315631
 41
2.300523974364326
 42
3.141592669888892
  0
ELLIPSE
  5
1C0
330
2
100
AcDbEntity
  8
GEB-KONTUR-A
 48
25.0
100
AcDbEllipse
 10
170.5325885303767
 20
911.6770030293798
 30
0.0
 11
6.000000000000003
 21
-0.0000000133359703
 31
0.0
210
0.0
220
0.0
230
1.0
 40
0.2679491924315616
 41
3.70170556586464
 42
4.712388987839486
  0
SPLINE
  5
1C1
330
2
100
AcDbEntity
  8
GEB-KONTUR-A
 48
25.0
100
AcDbSpline
210
0.0
220
0.0
230
1.0
 70
     8
 71
     3
 72
     8
 73
     4
 74
     0
 42
0.0000000001
 43
0.0000000001
 40
0.0
 40
0.0
 40
0.0
 40
0.0
 40
0.0700859052129726
 40
0.0700859052129726
 40
0.0700859052129726
 40
0.0700859052129726
 10
-171.9210113764758
 20
910.0693079518961
 30
0.0
 10
-172.1546310605191
 20
910.0693079519492
 30
0.0
 10
-172.3873948768869
 20
910.0834194511737
 30
0.0
 10
-172.6181710468073
 20
910.1113836443639
 30
0.0
  0
LINE
  5
1C2
330
2
100
AcDbEntity
  8
GEB-KONTUR-A
 48
25.0
100
AcDbLine
 10
186.0000000336762
 20
910.0693078713081
 30
0.0
 11
170.5325885715321
 21
910.0693078747907
 31
0.0
  0
LINE
  5
1C3
330
2
100
AcDbEntity
  8
GEB-KONTUR-A
 48
25.0
100
AcDbLine
 10
-166.3046062355062
 20
910.0693079506317
 30
0.0
 11
-171.9210113764758
 21
910.0693079518961
 31
0.0
  0
LINE
  5
1C4
330
2
100
AcDbEntity
  8
GEB-KONTUR-A
 48
25.0
100
AcDbLine
 10
50.99999999999972
 20
607.0
 30
0.0
 11
50.99999999999972
 21
635.7299999999991
 31
0.0
  0
LINE
  5
1C5
330
2
100
AcDbEntity
  8
GEB-KONTUR-A
 48
25.0
100
AcDbLine
 10
-51.00000000000028
 20
607.0
 30
0.0
 11
-51.00000000000028
 21
635.7299999999993
 31
0.0
  0
LINE
  5
1C6
330
2
100
AcDbEntity
  8
GEB-KONTUR-A
 48
25.0
100
AcDbLine
 10
50.99999999999972
 20
607.0
 30
0.0
 11
-51.00000000000028
 21
607.0
 31
0.0
  0
CIRCLE
  5
1C7
330
2
100
AcDbEntity
  8
GEB-KONTUR-A
 48
25.0
100
AcDbCircle
 10
130.4999999999996
 20
990.0000001882759
 30
0.0
 40
2.15
  0
CIRCLE
  5
1C8
330
2
100
AcDbEntity
  8
GEB-KONTUR-A
 48
25.0
100
AcDbCircle
 10
-130.5000000000004
 20
1010.00000018828
 30
0.0
 40
2.15
  0
LINE
  5
1C9
330
2
100
AcDbEntity
  8
GEB-KONTUR-A
 48
25.0
100
AcDbLine
 10
209.9999999999999
 20
136.0000000000002
 30
0.0
 11
-210.0
 21
136.0
 31
0.0
  0
LINE
  5
1CA
330
2
100
AcDbEntity
  8
GEB-KONTUR-A
 48
25.0
100
AcDbLine
 10
-210.0
 20
136.5456439426823
 30
0.0
 11
-210.0
 21
142.0000000000001
 31
0.0
  0
LINE
  5
1CB
330
2
100
AcDbEntity
  8
GEB-KONTUR-A
 48
25.0
100
AcDbLine
 10
-210.0
 20
160.0
 30
0.0
 11
-210.0
 21
142.0000000000001
 31
0.0
  0
LINE
  5
1CC
330
2
100
AcDbEntity
  8
GEB-KONTUR-A
 48
25.0
100
AcDbLine
 10
-210.0
 20
160.0
 30
0.0
 11
-210.0
 21
165.4543560573179
 31
0.0
  0
LINE
  5
1CD
330
2
100
AcDbEntity
  8
GEB-KONTUR-A
 48
25.0
100
AcDbLine
 10
209.9999999999999
 20
166.0000000000002
 30
0.0
 11
-210.0
 21
166.0
 31
0.0
  0
LINE
  5
1CE
330
2
100
AcDbEntity
  8
GEB-KONTUR-A
 48
25.0
100
AcDbLine
 10
209.9999999999999
 20
142.0000000000002
 30
0.0
 11
209.9999999999999
 21
160.0000000000002
 31
0.0
  0
LINE
  5
1CF
330
2
100
AcDbEntity
  8
GEB-KONTUR-A
 48
25.0
100
AcDbLine
 10
209.9999999999999
 20
165.454356057318
 30
0.0
 11
209.9999999999999
 21
160.0000000000002
 31
0.0
  0
LINE
  5
1D0
330
2
100
AcDbEntity
  8
GEB-KONTUR-A
 48
25.0
100
AcDbLine
 10
209.9999999999999
 20
142.0000000000002
 30
0.0
 11
209.9999999999999
 21
136.5456439426824
 31
0.0
  0
LINE
  5
1D1
330
2
100
AcDbEntity
  8
GEB-KONTUR-A
 48
25.0
100
AcDbLine
 10
17.99999999999988
 20
328.0000000000002
 30
0.0
 11
17.99999999999988
 21
333.8787753826798
 31
0.0
  0
LINE
  5
1D2
330
2
100
AcDbEntity
  8
GEB-KONTUR-A
 48
25.0
100
AcDbLine
 10
17.99999999999988
 20
330.7495454169737
 30
0.0
 11
-18.00000000000011
 21
330.7495454169737
 31
0.0
  0
LINE
  5
1D3
330
2
100
AcDbEntity
  8
GEB-KONTUR-A
 48
25.0
100
AcDbLine
 10
-18.00000000000011
 20
333.8787753826798
 30
0.0
 11
17.99999999999988
 21
333.8787753826799
 31
0.0
  0
LINE
  5
1D4
330
2
100
AcDbEntity
  8
GEB-KONTUR-A
 48
25.0
100
AcDbLine
 10
-18.00000000000011
 20
333.8787753826798
 30
0.0
 11
-18.00000000000011
 21
328.0000000000002
 31
0.0
  0
LINE
  5
1D5
330
2
100
AcDbEntity
  8
GEB-KONTUR-A
 48
25.0
100
AcDbLine
 10
-18.00000000000011
 20
327.0000000000002
 30
0.0
 11
-18.00000000000011
 21
328.0000000000002
 31
0.0
  0
LINE
  5
1D6
330
2
100
AcDbEntity
  8
GEB-KONTUR-A
 48
25.0
100
AcDbLine
 10
-2.000000000000113
 20
327.0000000000002
 30
0.0
 11
-18.00000000000011
 21
327.0000000000002
 31
0.0
  0
ARC
  5
1D7
330
2
100
AcDbEntity
  8
GEB-KONTUR-A
 48
25.0
100
AcDbCircle
 10
-0.0000000000001705
 20
327.0000000000002
 30
0.0
 40
2.0
100
AcDbArc
 50
180.0
 51
0.0
  0
LINE
  5
1D8
330
2
100
AcDbEntity
  8
GEB-KONTUR-A
 48
25.0
100
AcDbLine
 10
17.99999999999988
 20
327.0000000000002
 30
0.0
 11
1.999999999999886
 21
327.0000000000002
 31
0.0
  0
LINE
  5
1D9
330
2
100
AcDbEntity
  8
GEB-KONTUR-A
 48
25.0
100
AcDbLine
 10
17.99999999999988
 20
328.0000000000002
 30
0.0
 11
17.99999999999988
 21
327.0000000000002
 31
0.0
  0
ARC
  5
1DA
330
2
100
AcDbEntity
  8
GEB-KONTUR-A
 48
25.0
100
AcDbCircle
 10
-0.0000000000001705
 20
381.0000000000002
 30
0.0
 40
30.99999999999998
100
AcDbArc
 50
90.0
 51
180.0
  0
LINE
  5
1DB
330
2
100
AcDbEntity
  8
GEB-KONTUR-A
 48
25.0
100
AcDbLine
 10
-31.00000000000017
 20
331.0000000000001
 30
0.0
 11
-31.00000000000017
 21
381.0000000000002
 31
0.0
  0
ARC
  5
1DC
330
2
100
AcDbEntity
  8
GEB-KONTUR-A
 48
25.0
100
AcDbCircle
 10
-28.00000000000011
 20
331.0000000000001
 30
0.0
 40
3.000000000000002
100
AcDbArc
 50
180.0
 51
270.0
  0
LINE
  5
1DD
330
2
100
AcDbEntity
  8
GEB-KONTUR-A
 48
25.0
100
AcDbLine
 10
-22.00000000000011
 20
328.0000000000002
 30
0.0
 11
-28.00000000000011
 21
328.0000000000002
 31
0.0
  0
LINE
  5
1DE
330
2
100
AcDbEntity
  8
GEB-KONTUR-A
 48
25.0
100
AcDbLine
 10
27.99999999999983
 20
328.0000000000003
 30
0.0
 11
21.99999999999989
 21
328.0000000000002
 31
0.0
  0
ARC
  5
1DF
330
2
100
AcDbEntity
  8
GEB-KONTUR-A
 48
25.0
100
AcDbCircle
 10
27.99999999999983
 20
331.0000000000001
 30
0.0
 40
2.999999999999984
100
AcDbArc
 50
270.0
 51
0.0
  0
LINE
  5
1E0
330
2
100
AcDbEntity
  8
GEB-KONTUR-A
 48
25.0
100
AcDbLine
 10
30.99999999999977
 20
381.0000000000002
 30
0.0
 11
30.99999999999983
 21
331.0000000000002
 31
0.0
  0
ARC
  5
1E1
330
2
100
AcDbEntity
  8
GEB-KONTUR-A
 48
25.0
100
AcDbCircle
 10
-0.0000000000001705
 20
381.0000000000002
 30
0.0
 40
31.0
100
AcDbArc
 50
0.0
 51
90.0
  0
LINE
  5
1E2
330
2
100
AcDbEntity
  8
GEB-KONTUR-A
 48
25.0
100
AcDbLine
 10
-180.0
 20
315.0000000000002
 30
0.0
 11
-204.0000000000002
 21
315.0
 31
0.0
  0
LINE
  5
1E3
330
2
100
AcDbEntity
  8
GEB-KONTUR-A
 48
25.0
100
AcDbLine
 10
-204.0000000000002
 20
318.0000000000002
 30
0.0
 11
-180.0000000000002
 21
318.0000000000002
 31
0.0
  0
LINE
  5
1E4
330
2
100
AcDbEntity
  8
GEB-KONTUR-A
 48
25.0
100
AcDbLine
 10
-180.0000000000002
 20
347.0000000000002
 30
0.0
 11
-180.0
 21
315.0000000000002
 31
0.0
  0
LINE
  5
1E5
330
2
100
AcDbEntity
  8
GEB-KONTUR-A
 48
25.0
100
AcDbLine
 10
-183.0000000000002
 20
347.0000000000002
 30
0.0
 11
-180.0000000000002
 21
347.0000000000002
 31
0.0
  0
LINE
  5
1E6
330
2
100
AcDbEntity
  8
GEB-KONTUR-A
 48
25.0
100
AcDbLine
 10
-183.0000000000002
 20
336.0000000000001
 30
0.0
 11
-183.0000000000002
 21
347.0000000000002
 31
0.0
  0
LINE
  5
1E7
330
2
100
AcDbEntity
  8
GEB-KONTUR-A
 48
25.0
100
AcDbLine
 10
-201.0000000000002
 20
336.0000000000001
 30
0.0
 11
-183.0000000000002
 21
336.0000000000001
 31
0.0
  0
LINE
  5
1E8
330
2
100
AcDbEntity
  8
GEB-KONTUR-A
 48
25.0
100
AcDbLine
 10
-201.0000000000002
 20
347.0000000000002
 30
0.0
 11
-201.0000000000002
 21
336.0000000000001
 31
0.0
  0
LINE
  5
1E9
330
2
100
AcDbEntity
  8
GEB-KONTUR-A
 48
25.0
100
AcDbLine
 10
-204.0000000000002
 20
347.0000000000002
 30
0.0
 11
-201.0000000000002
 21
347.0000000000002
 31
0.0
  0
LINE
  5
1EA
330
2
100
AcDbEntity
  8
GEB-KONTUR-A
 48
25.0
100
AcDbLine
 10
-204.0000000000002
 20
315.0
 30
0.0
 11
-204.0000000000002
 21
347.0000000000002
 31
0.0
  0
LINE
  5
1EB
330
2
100
AcDbEntity
  8
GEB-KONTUR-A
 48
25.0
100
AcDbLine
 10
188.4641016151376
 20
336.5000000000002
 30
0.0
 11
184.9999999999998
 21
330.5000000000002
 31
0.0
  0
LINE
  5
1EC
330
2
100
AcDbEntity
  8
GEB-KONTUR-A
 48
25.0
100
AcDbLine
 10
184.9999999999998
 20
330.5000000000002
 30
0.0
 11
181.5358983848621
 21
336.5000000000002
 31
0.0
  0
LINE
  5
1ED
330
2
100
AcDbEntity
  8
GEB-KONTUR-A
 48
25.0
100
AcDbLine
 10
181.5358983848621
 20
336.5000000000002
 30
0.0
 11
188.4641016151376
 21
336.5000000000002
 31
0.0
  0
LINE
  5
1EE
330
2
100
AcDbEntity
  8
GEB-KONTUR-A
 48
25.0
100
AcDbLine
 10
202.9999999999998
 20
329.5000000000002
 30
0.0
 11
132.9999999999999
 21
329.5000000000002
 31
0.0
  0
LINE
  5
1EF
330
2
100
AcDbEntity
  8
GEB-KONTUR-A
 48
25.0
100
AcDbLine
 10
132.9999999999999
 20
329.5000000000002
 30
0.0
 11
132.9999999999999
 21
330.5000000000002
 31
0.0
  0
LINE
  5
1F0
330
2
100
AcDbEntity
  8
GEB-KONTUR-A
 48
25.0
100
AcDbLine
 10
184.9999999999998
 20
330.5000000000002
 30
0.0
 11
202.9999999999998
 21
330.5000000000002
 31
0.0
  0
LINE
  5
1F1
330
2
100
AcDbEntity
  8
GEB-KONTUR-A
 48
25.0
100
AcDbLine
 10
202.9999999999998
 20
330.5000000000002
 30
0.0
 11
202.9999999999998
 21
329.5000000000002
 31
0.0
  0
LINE
  5
1F2
330
2
100
AcDbEntity
  8
GEB-KONTUR-A
 48
25.0
100
AcDbLine
 10
132.9999999999999
 20
330.5000000000002
 30
0.0
 11
184.9999999999998
 21
330.5000000000002
 31
0.0
  0
LINE
  5
1F3
330
2
100
AcDbEntity
  8
GEB-KONTUR-A
 48
25.0
100
AcDbLine
 10
186.7320508075687
 20
335.5000000000002
 30
0.0
 11
183.267949192431
 21
335.5000000000002
 31
0.0
  0
LINE
  5
1F4
330
2
100
AcDbEntity
  8
GEB-KONTUR-A
 48
25.0
100
AcDbLine
 10
184.9999999999998
 20
332.5000000000002
 30
0.0
 11
186.7320508075687
 21
335.5000000000002
 31
0.0
  0
LINE
  5
1F5
330
2
100
AcDbEntity
  8
GEB-KONTUR-A
 48
25.0
100
AcDbLine
 10
183.267949192431
 20
335.5000000000002
 30
0.0
 11
184.9999999999998
 21
332.5000000000002
 31
0.0
  0
LINE
  5
1F6
330
2
100
AcDbEntity
  8
GEB-KONTUR-A
 48
25.0
100
AcDbLine
 10
209.9999999999999
 20
315.0000000000003
 30
0.0
 11
209.9999999999998
 21
425.0000000000004
 31
0.0
  0
LINE
  5
1F7
330
2
100
AcDbEntity
  8
GEB-KONTUR-A
 48
25.0
100
AcDbLine
 10
-180.0
 20
315.0000000000002
 30
0.0
 11
209.9999999999999
 21
315.0000000000003
 31
0.0
  0
LINE
  5
1F8
330
2
100
AcDbEntity
  8
GEB-KONTUR-A
 48
25.0
100
AcDbLine
 10
-210.0
 20
315.0
 30
0.0
 11
-204.0000000000002
 21
315.0
 31
0.0
  0
LINE
  5
1F9
330
2
100
AcDbEntity
  8
GEB-KONTUR-A
 48
25.0
100
AcDbLine
 10
-210.0000000000002
 20
425.0
 30
0.0
 11
-210.0
 21
315.0
 31
0.0
  0
LINE
  5
1FA
330
2
100
AcDbEntity
  8
GEB-KONTUR-A
 48
25.0
100
AcDbLine
 10
-210.0000000000002
 20
425.0
 30
0.0
 11
-0.5000000000001706
 21
425.0000000000002
 31
0.0
  0
LINE
  5
1FB
330
2
100
AcDbEntity
  8
GEB-KONTUR-A
 48
25.0
100
AcDbLine
 10
0.4999999999998295
 20
425.0000000000002
 30
0.0
 11
209.9999999999998
 21
425.0000000000004
 31
0.0
  0
LINE
  5
1FC
330
2
100
AcDbEntity
  8
GEB-KONTUR-A
 48
25.0
100
AcDbLine
 10
-0.0000000000001705
 20
425.0000000000002
 30
0.0
 11
0.4999999999998295
 21
425.0000000000002
 31
0.0
  0
LINE
  5
1FD
330
2
100
AcDbEntity
  8
GEB-KONTUR-A
 48
25.0
100
AcDbLine
 10
0.4999999999998295
 20
425.0000000000002
 30
0.0
 11
0.4999999999998295
 21
412.0000000000002
 31
0.0
  0
LINE
  5
1FE
330
2
100
AcDbEntity
  8
GEB-KONTUR-A
 48
25.0
100
AcDbLine
 10
0.4999999999998295
 20
412.0000000000002
 30
0.0
 11
-0.0000000000001705
 21
412.0000000000002
 31
0.0
  0
LINE
  5
1FF
330
2
100
AcDbEntity
  8
GEB-KONTUR-A
 48
25.0
100
AcDbLine
 10
-0.5000000000001706
 20
412.0000000000002
 30
0.0
 11
-0.5000000000001706
 21
425.0000000000002
 31
0.0
  0
LINE
  5
200
330
2
100
AcDbEntity
  8
GEB-KONTUR-A
 48
25.0
100
AcDbLine
 10
0.4999999999998295
 20
424.0
 30
0.0
 11
-0.5000000000001706
 21
424.0
 31
0.0
  0
LINE
  5
201
330
2
100
AcDbEntity
  8
GEB-KONTUR-A
 48
25.0
100
AcDbLine
 10
-0.5000000000001706
 20
425.0000000000002
 30
0.0
 11
-0.0000000000001705
 21
425.0000000000002
 31
0.0
  0
LINE
  5
202
330
2
100
AcDbEntity
  8
GEB-KONTUR-A
 48
25.0
100
AcDbLine
 10
-0.0000000000001705
 20
424.0000000000001
 30
0.0
 11
-0.0000000000001705
 21
425.0000000000002
 31
0.0
  0
LINE
  5
203
330
2
100
AcDbEntity
  8
GEB-KONTUR-A
 48
25.0
100
AcDbLine
 10
-0.0000000000001705
 20
412.0000000000002
 30
0.0
 11
-0.5000000000001706
 21
412.0000000000002
 31
0.0
  0
LINE
  5
204
330
2
100
AcDbEntity
  8
GEB-KONTUR-A
 48
25.0
100
AcDbLine
 10
-22.00000000000011
 20
334.0000000000001
 30
0.0
 11
21.99999999999989
 21
334.0000000000002
 31
0.0
  0
LINE
  5
205
330
2
100
AcDbEntity
  8
GEB-KONTUR-A
 48
25.0
100
AcDbLine
 10
21.99999999999989
 20
334.0000000000001
 30
0.0
 11
21.99999999999989
 21
328.0000000000002
 31
0.0
  0
LINE
  5
206
330
2
100
AcDbEntity
  8
GEB-KONTUR-A
 48
25.0
100
AcDbLine
 10
-22.00000000000011
 20
328.0000000000002
 30
0.0
 11
-22.00000000000011
 21
334.0000000000001
 31
0.0
  0
CIRCLE
  5
207
330
2
100
AcDbEntity
  8
GEB-KONTUR-A
 48
25.0
100
AcDbCircle
 10
-115.0000000000001
 20
330.0000000000002
 30
0.0
 40
5.052999999999999
  0
CIRCLE
  5
208
330
2
100
AcDbEntity
  8
GEB-KONTUR-A
 48
25.0
100
AcDbCircle
 10
-90.00000000000017
 20
330.0000000000002
 30
0.0
 40
5.052999999999999
  0
CIRCLE
  5
209
330
2
100
AcDbEntity
  8
GEB-KONTUR-A
 48
25.0
100
AcDbCircle
 10
89.99999999999984
 20
330.0000000000002
 30
0.0
 40
5.052999999999999
  0
CIRCLE
  5
20A
330
2
100
AcDbEntity
  8
GEB-KONTUR-A
 48
25.0
100
AcDbCircle
 10
114.9999999999998
 20
330.0000000000002
 30
0.0
 40
5.052999999999999
  0
CIRCLE
  5
20B
330
2
100
AcDbEntity
  8
GEB-KONTUR-A
 48
25.0
100
AcDbCircle
 10
-230.0000000000004
 20
1100.0
 30
0.0
 40
12.0
  0
CIRCLE
  5
20C
330
2
100
AcDbEntity
  8
GEB-KONTUR-A
 48
25.0
100
AcDbCircle
 10
-230.0000000000004
 20
1100.0
 30
0.0
 40
6.5
  0
LINE
  5
20D
330
2
100
AcDbEntity
  8
GEB-KONTUR-A
 48
25.0
100
AcDbLine
 10
-213.5000000000001
 20
70.0
 30
0.0
 11
-246.4999999999999
 21
70.0
 31
0.0
  0
LINE
  5
20E
330
2
100
AcDbEntity
  8
GEB-KONTUR-A
 48
25.0
100
AcDbLine
 10
-213.5000000000004
 20
1118.0
 30
0.0
 11
-246.5000000000004
 21
1118.0
 31
0.0
  0
LINE
  5
20F
330
2
100
AcDbEntity
  8
GEB-KONTUR-A
 48
25.0
100
AcDbLine
 10
-210.0000000000004
 20
870.9686256875439
 30
0.0
 11
-210.0000000000004
 21
1118.0
 31
0.0
  0
LINE
  5
210
330
2
100
AcDbEntity
  8
GEB-KONTUR-A
 48
25.0
100
AcDbLine
 10
-210.0000000000002
 20
425.0000000000002
 30
0.0
 11
-210.0000000000004
 21
819.0313717543499
 31
0.0
  0
LINE
  5
211
330
2
100
AcDbEntity
  8
GEB-KONTUR-A
 48
25.0
100
AcDbLine
 10
-210.0
 20
165.454356057318
 30
0.0
 11
-210.0000000000002
 21
315.0000000000002
 31
0.0
  0
LINE
  5
212
330
2
100
AcDbEntity
  8
GEB-KONTUR-A
 48
25.0
100
AcDbLine
 10
-210.0
 20
70.0
 30
0.0
 11
-210.0
 21
136.5456439426823
 31
0.0
  0
LINE
  5
213
330
2
100
AcDbEntity
  8
GEB-KONTUR-A
 48
25.0
100
AcDbLine
 10
-213.5000000000001
 20
70.0
 30
0.0
 11
-210.0
 21
70.0
 31
0.0
  0
LINE
  5
214
330
2
100
AcDbEntity
  8
GEB-KONTUR-A
 48
25.0
100
AcDbLine
 10
-213.5000000000004
 20
1118.0
 30
0.0
 11
-210.0000000000004
 21
1118.0
 31
0.0
  0
LINE
  5
215
330
2
100
AcDbEntity
  8
GEB-KONTUR-A
 48
25.0
100
AcDbLine
 10
-250.0
 20
70.0
 30
0.0
 11
-246.5000000000002
 21
70.0
 31
0.0
  0
LINE
  5
216
330
2
100
AcDbEntity
  8
GEB-KONTUR-A
 48
25.0
100
AcDbLine
 10
-250.0000000000004
 20
1118.0
 30
0.0
 11
-246.5000000000004
 21
1118.0
 31
0.0
  0
LINE
  5
217
330
2
100
AcDbEntity
  8
GEB-KONTUR-A
 48
25.0
100
AcDbLine
 10
-250.0
 20
70.0
 30
0.0
 11
-250.0000000000004
 21
1118.0
 31
0.0
  0
LINE
  5
218
330
2
100
AcDbEntity
  8
GEB-KONTUR-A
 48
25.0
100
AcDbLine
 10
-206.0000000000004
 20
1103.0
 30
0.0
 11
-210.0000000000004
 21
1103.0
 31
0.0
  0
LINE
  5
219
330
2
100
AcDbEntity
  8
GEB-KONTUR-A
 48
25.0
100
AcDbLine
 10
-206.0000000000004
 20
1081.0
 30
0.0
 11
-206.0000000000004
 21
1103.0
 31
0.0
  0
LINE
  5
21A
330
2
100
AcDbEntity
  8
GEB-KONTUR-A
 48
25.0
100
AcDbLine
 10
-206.0000000000004
 20
1081.0
 30
0.0
 11
-210.0000000000004
 21
1081.0
 31
0.0
  0
LINE
  5
21B
330
2
100
AcDbEntity
  8
GEB-KONTUR-A
 48
25.0
100
AcDbLine
 10
205.9999999999999
 20
70.00000000000023
 30
0.0
 11
209.9999999999999
 21
70.00000000000023
 31
0.0
  0
LINE
  5
21C
330
2
100
AcDbEntity
  8
GEB-KONTUR-A
 48
25.0
100
AcDbLine
 10
205.9999999999999
 20
92.00000000000011
 30
0.0
 11
205.9999999999999
 21
70.00000000000023
 31
0.0
  0
LINE
  5
21D
330
2
100
AcDbEntity
  8
GEB-KONTUR-A
 48
25.0
100
AcDbLine
 10
205.9999999999999
 20
92.00000000000011
 30
0.0
 11
209.9999999999999
 21
92.00000000000011
 31
0.0
  0
CIRCLE
  5
21E
330
2
100
AcDbEntity
  8
GEB-KONTUR-A
 48
25.0
100
AcDbCircle
 10
229.9999999999995
 20
1100.0
 30
0.0
 40
12.0
  0
CIRCLE
  5
21F
330
2
100
AcDbEntity
  8
GEB-KONTUR-A
 48
25.0
100
AcDbCircle
 10
229.9999999999995
 20
1100.0
 30
0.0
 40
6.5
  0
LINE
  5
220
330
2
100
AcDbEntity
  8
GEB-KONTUR-A
 48
25.0
100
AcDbLine
 10
213.4999999999999
 20
70.0
 30
0.0
 11
246.4999999999999
 21
70.0
 31
0.0
  0
LINE
  5
221
330
2
100
AcDbEntity
  8
GEB-KONTUR-A
 48
25.0
100
AcDbLine
 10
213.4999999999996
 20
1118.0
 30
0.0
 11
246.4999999999995
 21
1118.0
 31
0.0
  0
LINE
  5
222
330
2
100
AcDbEntity
  8
GEB-KONTUR-A
 48
25.0
100
AcDbLine
 10
213.4999999999999
 20
70.0
 30
0.0
 11
209.9999999999999
 21
70.0
 31
0.0
  0
LINE
  5
223
330
2
100
AcDbEntity
  8
GEB-KONTUR-A
 48
25.0
100
AcDbLine
 10
209.9999999999998
 20
425.0000000000002
 30
0.0
 11
209.9999999999996
 21
1118.0
 31
0.0
  0
LINE
  5
224
330
2
100
AcDbEntity
  8
GEB-KONTUR-A
 48
25.0
100
AcDbLine
 10
209.9999999999999
 20
165.454356057318
 30
0.0
 11
209.9999999999998
 21
315.0000000000002
 31
0.0
  0
LINE
  5
225
330
2
100
AcDbEntity
  8
GEB-KONTUR-A
 48
25.0
100
AcDbLine
 10
209.9999999999999
 20
70.0
 30
0.0
 11
209.9999999999999
 21
136.5456439426823
 31
0.0
  0
LINE
  5
226
330
2
100
AcDbEntity
  8
GEB-KONTUR-A
 48
25.0
100
AcDbLine
 10
213.4999999999996
 20
1118.0
 30
0.0
 11
209.9999999999996
 21
1118.0
 31
0.0
  0
LINE
  5
227
330
2
100
AcDbEntity
  8
GEB-KONTUR-A
 48
25.0
100
AcDbLine
 10
249.9999999999999
 20
70.0
 30
0.0
 11
246.4999999999999
 21
70.0
 31
0.0
  0
LINE
  5
228
330
2
100
AcDbEntity
  8
GEB-KONTUR-A
 48
25.0
100
AcDbLine
 10
249.9999999999996
 20
1118.0
 30
0.0
 11
246.4999999999996
 21
1118.0
 31
0.0
  0
LINE
  5
229
330
2
100
AcDbEntity
  8
GEB-KONTUR-A
 48
25.0
100
AcDbLine
 10
249.9999999999999
 20
70.0
 30
0.0
 11
249.9999999999996
 21
1118.0
 31
0.0
  0
LINE
  5
22A
330
2
100
AcDbEntity
  8
GEB-KONTUR-A
 48
25.0
100
AcDbLine
 10
247.5
 20
70.0
 30
0.0
 11
247.5
 21
8.000000000000227
 31
0.0
  0
LINE
  5
22B
330
2
100
AcDbEntity
  8
GEB-KONTUR-A
 48
25.0
100
AcDbLine
 10
212.5
 20
70.0
 30
0.0
 11
212.5
 21
8.000000000000227
 31
0.0
  0
LINE
  5
22C
330
2
100
AcDbEntity
  8
GEB-KONTUR-A
 48
25.0
100
AcDbLine
 10
178.75
 20
0.0000000000002274
 30
0.0
 11
176.25
 21
0.0000000000002274
 31
0.0
  0
LINE
  5
22D
330
2
100
AcDbEntity
  8
GEB-KONTUR-A
 48
25.0
100
AcDbLine
 10
176.2500000000001
 20
0.0000000000002274
 30
0.0
 11
176.2500000000001
 21
8.000000000000227
 31
0.0
  0
LINE
  5
22E
330
2
100
AcDbEntity
  8
GEB-KONTUR-A
 48
25.0
100
AcDbLine
 10
176.25
 20
8.000000000000227
 30
0.0
 11
178.75
 21
8.000000000000227
 31
0.0
  0
LINE
  5
22F
330
2
100
AcDbEntity
  8
GEB-KONTUR-A
 48
25.0
100
AcDbLine
 10
178.7500000000001
 20
0.0000000000002274
 30
0.0
 11
246.7500000000001
 21
0.0000000000002274
 31
0.0
  0
LINE
  5
230
330
2
100
AcDbEntity
  8
GEB-KONTUR-A
 48
25.0
100
AcDbLine
 10
246.75
 20
8.000000000000227
 30
0.0
 11
178.7500000000001
 21
8.000000000000227
 31
0.0
  0
LINE
  5
231
330
2
100
AcDbEntity
  8
GEB-KONTUR-A
 48
25.0
100
AcDbLine
 10
249.2500000000001
 20
0.0000000000002274
 30
0.0
 11
249.25
 21
8.000000000000227
 31
0.0
  0
LINE
  5
232
330
2
100
AcDbEntity
  8
GEB-KONTUR-A
 48
25.0
100
AcDbLine
 10
249.25
 20
0.0000000000002274
 30
0.0
 11
246.75
 21
0.0000000000002274
 31
0.0
  0
LINE
  5
233
330
2
100
AcDbEntity
  8
GEB-KONTUR-A
 48
25.0
100
AcDbLine
 10
246.75
 20
8.000000000000227
 30
0.0
 11
249.25
 21
8.000000000000227
 31
0.0
  0
TEXT
  5
234
330
2
100
AcDbEntity
  8
GEB-TEXT
100
AcDbText
 10
-46.87517053206019
 20
-13.0
 30
0.0
 40
3.5
  1
DF-B WC UP100 H112 90/110 TRA VB DE
 72
     1
 11
-0.0000000000001705
 21
-13.0
 31
0.0
100
AcDbText
  0
TEXT
  5
236
330
2
100
AcDbEntity
  8
GEB-TEXT
100
AcDbText
 10
-16.43997271487056
 20
-7.5
 30
0.0
 40
3.5
  1
Geberit DuoFix
 72
     1
 11
-0.0000000000001705
 21
-7.5
 31
0.0
100
AcDbText
  0
TEXT
  5
237
330
2
100
AcDbEntity
  8
GEB-ART-NR
100
AcDbText
 10
-24.17544479964577
 20
-19.34278125428022
 30
0.0
 40
3.5
  1
GEB-ART-NR 458.103
 72
     1
 11
0.5525565646107112
 21
-19.34278125428022
 31
0.0
100
AcDbText
  0
ENDSEC
  0
SECTION
  2
OBJECTS
  0
DICTIONARY
  5
9
330
0
100
AcDbDictionary
281
     1
  3
ACAD_2007HEADERVARS_RT
350
265
  3
ACAD_COLOR
350
45
  3
ACAD_GROUP
350
32
  3
ACAD_LAYOUT
350
16
  3
ACAD_MATERIAL
350
B
  3
ACAD_MLEADERSTYLE
350
48
  3
ACAD_MLINESTYLE
350
33
  3
ACAD_PLOTSETTINGS
350
34
  3
ACAD_PLOTSTYLENAME
350
8
  3
ACAD_SCALELIST
350
46
  3
ACAD_TABLESTYLE
350
47
  3
ACAD_VISUALSTYLE
350
2B
  3
ACDB_RECOMPOSE_DATA
350
264
  3
AcDbVariableDictionary
350
23B
  0
DICTIONARY
  5
2D
330
28
100
AcDbDictionary
280
     1
281
     1
  0
DICTIONARY
  5
1C
330
1B
100
AcDbDictionary
280
     1
281
     1
  3
ACAD_LAYERFILTERS
360
1D
  3
ACLYDICTIONARY
360
1E
  0
DICTIONARY
  5
3
330
2
100
AcDbDictionary
280
     1
281
     1
  3
ACAD_SORTENTS
360
239
  0
DICTIONARY
  5
265
102
{ACAD_REACTORS
330
9
102
}
330
9
100
AcDbDictionary
281
     1
  3
DIMARCSYM
350
266
  3
DIMLTEX1
350
268
  3
DIMLTEX2
350
269
  3
DIMLTYPE
350
267
  0
DICTIONARY
  5
45
102
{ACAD_REACTORS
330
9
102
}
330
9
100
AcDbDictionary
281
     1
  0
DICTIONARY
  5
32
102
{ACAD_REACTORS
330
9
102
}
330
9
100
AcDbDictionary
281
     1
  0
DICTIONARY
  5
16
102
{ACAD_REACTORS
330
9
102
}
330
9
100
AcDbDictionary
281
     1
  3
Layout1
350
1A
  3
Model
350
15
  0
DICTIONARY
  5
B
102
{ACAD_REACTORS
330
9
102
}
330
9
100
AcDbDictionary
281
     1
  3
ByBlock
350
3D
  3
ByLayer
350
35
  3
Global
350
A
  0
DICTIONARY
  5
48
102
{ACAD_REACTORS
330
9
102
}
330
9
100
AcDbDictionary
281
     1
  3
Standard
350
259
  0
DICTIONARY
  5
33
102
{ACAD_REACTORS
330
9
102
}
330
9
100
AcDbDictionary
281
     1
  3
Standard
350
49
  0
DICTIONARY
  5
34
102
{ACAD_REACTORS
330
9
102
}
330
9
100
AcDbDictionary
281
     1
  0
ACDBDICTIONARYWDFLT
  5
8
102
{ACAD_REACTORS
330
9
102
}
330
9
100
AcDbDictionary
281
     1
  3
Normal
350
7
100
AcDbDictionaryWithDefault
340
7
  0
DICTIONARY
  5
46
102
{ACAD_REACTORS
330
9
102
}
330
9
100
AcDbDictionary
281
     1
  3
A0
350
4E
  3
A1
350
4F
  3
A2
350
50
  3
A3
350
51
  3
A4
350
52
  3
A5
350
53
  3
A6
350
54
  3
A7
350
55
  3
A8
350
56
  3
A9
350
57
  3
B0
350
58
  3
B1
350
59
  3
B2
350
5A
  3
B3
350
5B
  3
B4
350
5C
  3
B5
350
5D
  3
B6
350
5E
  3
B7
350
5F
  3
B8
350
60
  3
B9
350
61
  3
C0
350
62
  3
C1
350
63
  3
C2
350
64
  3
C3
350
65
  3
C4
350
66
  3
C5
350
67
  3
C6
350
68
  3
C7
350
69
  3
C8
350
6A
  3
C9
350
6B
  3
D0
350
6C
  3
D1
350
6D
  3
D2
350
6E
  0
DICTIONARY
  5
47
102
{ACAD_REACTORS
330
9
102
}
330
9
100
AcDbDictionary
281
     1
  3
Standard
350
4A
  0
DICTIONARY
  5
2B
102
{ACAD_REACTORS
330
9
102
}
330
9
100
AcDbDictionary
281
     1
  3
2dWireframe
350
2A
  3
Basic
350
248
  3
Brighten
350
24C
  3
ColorChange
350
250
  3
Conceptual
350
24A
  3
Dim
350
24B
  3
EdgeColorOff
350
258
  3
Facepattern
350
24F
  3
Flat
350
244
  3
FlatWithEdges
350
245
  3
Gouraud
350
246
  3
GouraudWithEdges
350
247
  3
Hidden
350
249
  3
JitterOff
350
256
  3
Linepattern
350
24E
  3
OverhangOff
350
257
  3
Realistic
350
4C
  3
Shaded
350
255
  3
Shaded with edges
350
254
  3
Shades of Gray
350
251
  3
Sketchy
350
252
  3
Thicken
350
24D
  3
Wireframe
350
4D
  3
X-Ray
350
253
  0
XRECORD
  5
264
102
{ACAD_REACTORS
330
9
102
}
330
9
100
AcDbXrecord
280
     1
 90
        1
330
4A
  0
DICTIONARY
  5
23B
102
{ACAD_REACTORS
330
9
102
}
330
9
100
AcDbDictionary
281
     1
  3
CANNOSCALE
350
23F
  3
CMLEADERSTYLE
350
23D
  3
CTABLESTYLE
350
23C
  3
DIMASSOC
350
260
  3
HIDETEXT
350
25F
  3
INDEXCTL
350
25E
  3
LAYEREVAL
350
241
  3
LAYERNOTIFY
350
242
  3
LIGHTINGUNITS
350
240
  3
MSLTSCALE
350
23E
  3
SOLIDHIST
350
261
  3
SORTENTS
350
25D
  3
XCLIPFRAME
350
262
  0
DICTIONARY
  5
1D
102
{ACAD_REACTORS
330
1C
102
}
330
1C
100
AcDbDictionary
281
     1
  0
DICTIONARY
  5
1E
102
{ACAD_REACTORS
330
1C
102
}
330
1C
100
AcDbDictionary
281
     1
1001
ACAD
1000
<All
  0
SORTENTSTABLE
  5
239
102
{ACAD_REACTORS
330
3
102
}
330
3
100
AcDbSortentsTable
330
2
331
B7
  5
1F3
331
B3
  5
1F7
331
12D
  5
17D
331
EE
  5
1BC
331
1A6
  5
104
331
129
  5
181
331
AF
  5
1FB
331
EA
  5
1C0
331
AB
  5
1FF
331
21C
  5
8E
331
1A2
  5
108
331
125
  5
185
331
164
  5
146
331
1DD
  5
CD
331
218
  5
92
331
19E
  5
10C
331
121
  5
189
331
160
  5
14A
331
1D9
  5
D1
331
19A
  5
110
331
214
  5
96
331
210
  5
9A
331
E6
  5
1C4
331
A7
  5
203
331
A3
  5
207
331
15C
  5
14E
331
11D
  5
18D
331
E2
  5
1C8
331
DE
  5
1CC
331
158
  5
152
331
196
  5
114
331
1D5
  5
D5
331
119
  5
191
331
9F
  5
20B
331
DA
  5
1D0
331
154
  5
156
331
1D1
  5
D9
331
20C
  5
9E
331
192
  5
118
331
115
  5
195
331
9B
  5
20F
331
1CD
  5
DD
331
208
  5
A2
331
18E
  5
11C
331
111
  5
199
331
150
  5
15A
331
1C9
  5
E1
331
204
  5
A6
331
18A
  5
120
331
200
  5
AA
331
D6
  5
1D4
331
97
  5
213
331
93
  5
217
331
14C
  5
15E
331
10D
  5
19D
331
D2
  5
1D8
331
8F
  5
21B
331
148
  5
162
331
186
  5
124
331
1C5
  5
E5
331
109
  5
1A1
331
CE
  5
1DC
331
CA
  5
1E0
331
144
  5
166
331
1C1
  5
E9
331
1FC
  5
AE
331
182
  5
128
331
105
  5
1A5
331
8B
  5
21F
331
1BD
  5
ED
331
237
  5
234
331
1F8
  5
B2
331
17E
  5
12C
331
101
  5
1A9
331
140
  5
16A
331
1B9
  5
F1
331
17A
  5
130
331
1F4
  5
B6
331
233
  5
6F
331
1F0
  5
BA
331
C6
  5
1E4
331
87
  5
223
331
C2
  5
1E8
331
83
  5
227
331
13C
  5
16E
331
FD
  5
1AD
331
7F
  5
22B
331
138
  5
172
331
176
  5
134
331
22F
  5
7A
331
1B5
  5
F5
331
F9
  5
1B1
331
BE
  5
1EC
331
BA
  5
1F0
331
134
  5
176
331
172
  5
138
331
22B
  5
7F
331
1EC
  5
BE
331
1B1
  5
F9
331
F5
  5
1B5
331
7B
  5
22E
331
1AD
  5
FD
331
227
  5
83
331
1E8
  5
C2
331
16E
  5
13C
331
F1
  5
1B9
331
130
  5
17A
331
1A9
  5
101
331
16A
  5
140
331
1E4
  5
C6
331
223
  5
87
331
1E0
  5
CA
331
B6
  5
1F4
331
B2
  5
1F8
331
12C
  5
17E
331
ED
  5
1BD
331
167
  5
143
331
1A5
  5
105
331
21F
  5
8B
331
128
  5
182
331
AE
  5
1FC
331
E9
  5
1C1
331
AA
  5
200
331
21B
  5
8F
331
1A1
  5
109
331
124
  5
186
331
163
  5
147
331
1DC
  5
CE
331
217
  5
93
331
19D
  5
10D
331
120
  5
18A
331
1D8
  5
D2
331
199
  5
111
331
213
  5
97
331
6F
  5
233
331
E5
  5
1C5
331
A6
  5
204
331
15F
  5
14B
331
A2
  5
208
331
15B
  5
14F
331
11C
  5
18E
331
E1
  5
1C9
331
DD
  5
1CD
331
157
  5
153
331
195
  5
115
331
20F
  5
9B
331
1D4
  5
D6
331
118
  5
192
331
9E
  5
20C
331
D9
  5
1D1
331
9A
  5
210
331
1D0
  5
DA
331
20B
  5
9F
331
191
  5
119
331
114
  5
196
331
153
  5
157
331
1CC
  5
DE
331
207
  5
A3
331
18D
  5
11D
331
110
  5
19A
331
1C8
  5
E2
331
189
  5
121
331
203
  5
A7
331
D5
  5
1D5
331
96
  5
214
331
14F
  5
15B
331
92
  5
218
331
14B
  5
15F
331
10C
  5
19E
331
D1
  5
1D9
331
CD
  5
1DD
331
147
  5
163
331
185
  5
125
331
1FF
  5
AB
331
1C4
  5
E6
331
108
  5
1A2
331
8E
  5
21C
331
C9
  5
1E1
331
143
  5
167
331
1C0
  5
EA
331
1FB
  5
AF
331
181
  5
129
331
104
  5
1A6
331
8A
  5
220
331
1BC
  5
EE
331
1F7
  5
B3
331
17D
  5
12D
331
100
  5
1AA
331
1B8
  5
F2
331
179
  5
131
331
1F3
  5
B7
331
232
  5
76
331
C5
  5
1E5
331
86
  5
224
331
13F
  5
16B
331
82
  5
228
331
13B
  5
16F
331
FC
  5
1AE
331
C1
  5
1E9
331
7E
  5
22C
331
137
  5
173
331
175
  5
135
331
22E
  5
7B
331
1EF
  5
BB
331
1B4
  5
F6
331
F8
  5
1B2
331
BD
  5
1ED
331
B9
  5
1F1
331
133
  5
177
331
1B0
  5
FA
331
22A
  5
80
331
1EB
  5
BF
331
171
  5
139
331
F4
  5
1B6
331
7A
  5
22F
331
1AC
  5
FE
331
226
  5
84
331
1E7
  5
C3
331
16D
  5
13D
331
F0
  5
1BA
331
1A8
  5
102
331
169
  5
141
331
1E3
  5
C7
331
222
  5
88
331
76
  5
232
331
B5
  5
1F5
331
12F
  5
17B
331
B1
  5
1F9
331
12B
  5
17F
331
EC
  5
1BE
331
166
  5
144
331
21E
  5
8C
331
1A4
  5
106
331
127
  5
183
331
AD
  5
1FD
331
E8
  5
1C2
331
A9
  5
201
331
1DF
  5
CB
331
21A
  5
90
331
1A0
  5
10A
331
123
  5
187
331
162
  5
148
331
1DB
  5
CF
331
216
  5
94
331
19C
  5
10E
331
198
  5
112
331
212
  5
98
331
E4
  5
1C6
331
A5
  5
205
331
15E
  5
14C
331
11F
  5
18B
331
A1
  5
209
331
15A
  5
150
331
1D7
  5
D3
331
11B
  5
18F
331
E0
  5
1CA
331
DC
  5
1CE
331
156
  5
154
331
194
  5
116
331
20E
  5
9C
331
1D3
  5
D7
331
117
  5
193
331
9D
  5
20D
331
D8
  5
1D2
331
99
  5
211
331
1CF
  5
DB
331
20A
  5
A0
331
190
  5
11A
331
113
  5
197
331
152
  5
158
331
1CB
  5
DF
331
206
  5
A4
331
18C
  5
11E
331
188
  5
122
331
202
  5
A8
331
D4
  5
1D6
331
95
  5
215
331
14E
  5
15C
331
10F
  5
19B
331
91
  5
219
331
14A
  5
160
331
1C7
  5
E3
331
10B
  5
19F
331
D0
  5
1DA
331
CC
  5
1DE
331
146
  5
164
331
184
  5
126
331
1FE
  5
AC
331
1C3
  5
E7
331
107
  5
1A3
331
8D
  5
21D
331
C8
  5
1E2
331
89
  5
221
331
1BF
  5
EB
331
1FA
  5
B0
331
180
  5
12A
331
103
  5
1A7
331
142
  5
168
331
1BB
  5
EF
331
1F6
  5
B4
331
17C
  5
12E
331
178
  5
132
331
231
  5
78
331
1F2
  5
B8
331
C4
  5
1E6
331
85
  5
225
331
FF
  5
1AB
331
13E
  5
16C
331
81
  5
229
331
13A
  5
170
331
1B7
  5
F3
331
FB
  5
1AF
331
C0
  5
1EA
331
BC
  5
1EE
331
136
  5
174
331
174
  5
136
331
22D
  5
7D
331
1EE
  5
BC
331
1B3
  5
F7
331
F7
  5
1B3
331
7D
  5
22D
331
B8
  5
1F2
331
132
  5
178
331
1AF
  5
FB
331
229
  5
81
331
1EA
  5
C0
331
170
  5
13A
331
F3
  5
1B7
331
79
  5
230
331
1AB
  5
FF
331
16C
  5
13E
331
1E6
  5
C4
331
225
  5
85
331
168
  5
142
331
1E2
  5
C8
331
221
  5
89
331
B4
  5
1F6
331
12E
  5
17C
331
EF
  5
1BB
331
1A7
  5
103
331
12A
  5
180
331
B0
  5
1FA
331
EB
  5
1BF
331
165
  5
145
331
21D
  5
8D
331
1A3
  5
107
331
126
  5
184
331
AC
  5
1FE
331
A8
  5
202
331
1DE
  5
CC
331
219
  5
91
331
19F
  5
10B
331
122
  5
188
331
161
  5
149
331
1DA
  5
D0
331
215
  5
95
331
19B
  5
10F
331
211
  5
99
331
E7
  5
1C3
331
A4
  5
206
331
15D
  5
14D
331
11E
  5
18C
331
E3
  5
1C7
331
A0
  5
20A
331
159
  5
151
331
197
  5
113
331
1D6
  5
D4
331
11A
  5
190
331
DF
  5
1CB
331
DB
  5
1CF
331
1D2
  5
D8
331
20D
  5
9D
331
193
  5
117
331
116
  5
194
331
9C
  5
20E
331
98
  5
212
331
1CE
  5
DC
331
209
  5
A1
331
18F
  5
11B
331
112
  5
198
331
151
  5
159
331
1CA
  5
E0
331
205
  5
A5
331
18B
  5
11F
331
201
  5
A9
331
D7
  5
1D3
331
D3
  5
1D7
331
94
  5
216
331
14D
  5
15D
331
10E
  5
19C
331
90
  5
21A
331
149
  5
161
331
187
  5
123
331
1C6
  5
E4
331
10A
  5
1A0
331
CF
  5
1DB
331
CB
  5
1DF
331
145
  5
165
331
183
  5
127
331
1FD
  5
AD
331
1C2
  5
E8
331
106
  5
1A4
331
8C
  5
21E
331
88
  5
222
331
1BE
  5
EC
331
1F9
  5
B1
331
17F
  5
12B
331
102
  5
1A8
331
141
  5
169
331
1BA
  5
F0
331
17B
  5
12F
331
1F5
  5
B5
331
234
  5
237
331
230
  5
79
331
1F1
  5
B9
331
C7
  5
1E3
331
C3
  5
1E7
331
84
  5
226
331
13D
  5
16D
331
FE
  5
1AC
331
80
  5
22A
331
139
  5
171
331
1B6
  5
F4
331
177
  5
133
331
FA
  5
1B0
331
BF
  5
1EB
331
135
  5
175
331
173
  5
137
331
22C
  5
7E
331
1ED
  5
BD
331
1B2
  5
F8
331
F6
  5
1B4
331
BB
  5
1EF
331
78
  5
231
331
1AE
  5
FC
331
228
  5
82
331
1E9
  5
C1
331
16F
  5
13B
331
F2
  5
1B8
331
131
  5
179
331
1AA
  5
100
331
16B
  5
13F
331
1E5
  5
C5
331
224
  5
86
331
220
  5
8A
331
1E1
  5
C9
  0
XRECORD
  5
266
102
{ACAD_REACTORS
330
265
102
}
330
265
100
AcDbXrecord
280
     1
 70
     1
  0
XRECORD
  5
268
102
{ACAD_REACTORS
330
265
102
}
330
265
100
AcDbXrecord
280
     1
340
24
  0
XRECORD
  5
269
102
{ACAD_REACTORS
330
265
102
}
330
265
100
AcDbXrecord
280
     1
340
24
  0
XRECORD
  5
267
102
{ACAD_REACTORS
330
265
102
}
330
265
100
AcDbXrecord
280
     1
340
24
  0
LAYOUT
  5
1A
102
{ACAD_XDICTIONARY
360
26D
102
}
102
{ACAD_REACTORS
330
16
102
}
330
16
100
AcDbPlotSettings
  1

  2
\\le-server\HP LaserJet 2100
  4

  6

 40
0.0
 41
0.0
 42
0.0
 43
0.0
 44
0.0
 45
0.0
 46
0.0
 47
0.0
 48
0.0
 49
0.0
140
0.0
141
0.0
142
1.0
143
1.0
 70
   688
 72
     0
 73
     0
 74
     5
  7

 75
    16
147
1.0
148
0.0
149
0.0
100
AcDbLayout
  1
Layout1
 70
     1
 71
     1
 10
0.0
 20
0.0
 11
1189.0
 21
840.9999999999998
 12
0.0
 22
0.0
 32
0.0
 14
0.0
 24
0.0
 34
0.0
 15
1189.0
 25
840.9999999999998
 35
0.0
146
0.0
 13
0.0
 23
0.0
 33
0.0
 16
1.0
 26
0.0
 36
0.0
 17
0.0
 27
1.0
 37
0.0
 76
     0
330
17
  0
LAYOUT
  5
15
102
{ACAD_XDICTIONARY
360
26B
102
}
102
{ACAD_REACTORS
330
16
102
}
330
16
100
AcDbPlotSettings
  1

  2
\\le-server\HP LaserJet 2100
  4

  6

 40
0.0
 41
0.0
 42
0.0
 43
0.0
 44
0.0
 45
0.0
 46
0.0
 47
0.0
 48
0.0
 49
0.0
140
0.0
141
0.0
142
1.0
143
1.0
 70
  1712
 72
     0
 73
     0
 74
     0
  7

 75
     0
147
1.0
148
0.0
149
0.0
100
AcDbLayout
  1
Model
 70
     1
 71
     0
 10
0.0
 20
0.0
 11
12.0
 21
9.0
 12
0.0
 22
0.0
 32
0.0
 14
0.0
 24
0.0
 34
0.0
 15
0.0
 25
0.0
 35
0.0
146
0.0
 13
0.0
 23
0.0
 33
0.0
 16
1.0
 26
0.0
 36
0.0
 17
0.0
 27
1.0
 37
0.0
 76
     0
330
2
331
29
  0
MATERIAL
  5
3D
102
{ACAD_XDICTIONARY
360
3E
102
}
102
{ACAD_REACTORS
330
B
102
}
330
B
100
AcDbMaterial
  1
ByBlock
 72
     0
 43
0.0208333333333333
 43
0.0
 43
0.0
 43
0.0
 43
0.0
 43
0.0208333333333333
 43
0.0
 43
0.0
 43
0.0
 43
0.0
 43
1.0
 43
0.0
 43
0.0
 43
0.0
 43
0.0
 43
1.0
 77
     0
 47
0.0208333333333333
 47
0.0
 47
0.0
 47
0.0
 47
0.0
 47
0.0208333333333333
 47
0.0
 47
0.0
 47
0.0
 47
0.0
 47
1.0
 47
0.0
 47
0.0
 47
0.0
 47
0.0
 47
1.0
171
     0
 49
0.0208333333333333
 49
0.0
 49
0.0
 49
0.0
 49
0.0
 49
0.0208333333333333
 49
0.0
 49
0.0
 49
0.0
 49
0.0
 49
1.0
 49
0.0
 49
0.0
 49
0.0
 49
0.0
 49
1.0
175
     0
142
0.0208333333333333
142
0.0
142
0.0
142
0.0
142
0.0
142
0.0208333333333333
142
0.0
142
0.0
142
0.0
142
0.0
142
1.0
142
0.0
142
0.0
142
0.0
142
0.0
142
1.0
179
     0
144
0.0208333333333333
144
0.0
144
0.0
144
0.0
144
0.0
144
0.0208333333333333
144
0.0
144
0.0
144
0.0
144
0.0
144
1.0
144
0.0
144
0.0
144
0.0
144
0.0
144
1.0
147
0.0208333333333333
147
0.0
147
0.0
147
0.0
147
0.0
147
0.0208333333333333
147
0.0
147
0.0
147
0.0
147
0.0
147
1.0
147
0.0
147
0.0
147
0.0
147
0.0
147
1.0
  0
MATERIAL
  5
35
102
{ACAD_XDICTIONARY
360
36
102
}
102
{ACAD_REACTORS
330
B
102
}
330
B
100
AcDbMaterial
  1
ByLayer
 72
     0
 43
0.0208333333333333
 43
0.0
 43
0.0
 43
0.0
 43
0.0
 43
0.0208333333333333
 43
0.0
 43
0.0
 43
0.0
 43
0.0
 43
1.0
 43
0.0
 43
0.0
 43
0.0
 43
0.0
 43
1.0
 77
     0
 47
0.0208333333333333
 47
0.0
 47
0.0
 47
0.0
 47
0.0
 47
0.0208333333333333
 47
0.0
 47
0.0
 47
0.0
 47
0.0
 47
1.0
 47
0.0
 47
0.0
 47
0.0
 47
0.0
 47
1.0
171
     0
 49
0.0208333333333333
 49
0.0
 49
0.0
 49
0.0
 49
0.0
 49
0.0208333333333333
 49
0.0
 49
0.0
 49
0.0
 49
0.0
 49
1.0
 49
0.0
 49
0.0
 49
0.0
 49
0.0
 49
1.0
175
     0
142
0.0208333333333333
142
0.0
142
0.0
142
0.0
142
0.0
142
0.0208333333333333
142
0.0
142
0.0
142
0.0
142
0.0
142
1.0
142
0.0
142
0.0
142
0.0
142
0.0
142
1.0
179
     0
144
0.0208333333333333
144
0.0
144
0.0
144
0.0
144
0.0
144
0.0208333333333333
144
0.0
144
0.0
144
0.0
144
0.0
144
1.0
144
0.0
144
0.0
144
0.0
144
0.0
144
1.0
147
0.0208333333333333
147
0.0
147
0.0
147
0.0
147
0.0
147
0.0208333333333333
147
0.0
147
0.0
147
0.0
147
0.0
147
1.0
147
0.0
147
0.0
147
0.0
147
0.0
147
1.0
  0
MATERIAL
  5
A
102
{ACAD_XDICTIONARY
360
C
102
}
102
{ACAD_REACTORS
330
B
102
}
330
B
100
AcDbMaterial
  1
Global
 72
     0
 43
0.0208333333333333
 43
0.0
 43
0.0
 43
0.0
 43
0.0
 43
0.0208333333333333
 43
0.0
 43
0.0
 43
0.0
 43
0.0
 43
1.0
 43
0.0
 43
0.0
 43
0.0
 43
0.0
 43
1.0
 77
     0
 47
0.0208333333333333
 47
0.0
 47
0.0
 47
0.0
 47
0.0
 47
0.0208333333333333
 47
0.0
 47
0.0
 47
0.0
 47
0.0
 47
1.0
 47
0.0
 47
0.0
 47
0.0
 47
0.0
 47
1.0
171
     0
 49
0.0208333333333333
 49
0.0
 49
0.0
 49
0.0
 49
0.0
 49
0.0208333333333333
 49
0.0
 49
0.0
 49
0.0
 49
0.0
 49
1.0
 49
0.0
 49
0.0
 49
0.0
 49
0.0
 49
1.0
175
     0
142
0.0208333333333333
142
0.0
142
0.0
142
0.0
142
0.0
142
0.0208333333333333
142
0.0
142
0.0
142
0.0
142
0.0
142
1.0
142
0.0
142
0.0
142
0.0
142
0.0
142
1.0
179
     0
144
0.0208333333333333
144
0.0
144
0.0
144
0.0
144
0.0
144
0.0208333333333333
144
0.0
144
0.0
144
0.0
144
0.0
144
1.0
144
0.0
144
0.0
144
0.0
144
0.0
144
1.0
147
0.0208333333333333
147
0.0
147
0.0
147
0.0
147
0.0
147
0.0208333333333333
147
0.0
147
0.0
147
0.0
147
0.0
147
1.0
147
0.0
147
0.0
147
0.0
147
0.0
147
1.0
  0
MLEADERSTYLE
  5
259
102
{ACAD_REACTORS
330
48
102
}
330
48
100
AcDbMLeaderStyle
170
     2
171
     1
172
     0
 90
        2
 40
0.0
 41
0.0
173
     1
 91
-1056964608
340
24
 92
       -2
290
     1
 42
2.0
291
     1
 43
0.36
  3
Standard
 44
4.0
300

342
21
174
     1
178
     6
175
     1
176
     0
 93
-1056964608
 45
4.0
292
     0
297
     0
 46
4.0
 94
-1056964608
 47
1.0
 49
1.0
140
1.0
293
     1
141
0.0
294
     1
177
     0
142
1.0
295
     0
296
     0
143
0.125
1001
ACAD_MLEADERVER
1070
     2
  0
MLINESTYLE
  5
49
102
{ACAD_REACTORS
330
33
102
}
330
33
100
AcDbMlineStyle
  2
STANDARD
 70
     0
  3

 62
   256
 51
90.0
 52
90.0
 71
     2
 49
0.5
 62
   256
  6
BYLAYER
 49
-0.5
 62
   256
  6
BYLAYER
  0
ACDBPLACEHOLDER
  5
7
102
{ACAD_REACTORS
330
8
102
}
330
8
  0
SCALE
  5
4E
102
{ACAD_REACTORS
330
46
102
}
330
46
100
AcDbScale
 70
     0
300
1:1
140
1.0
141
1.0
290
     1
  0
SCALE
  5
4F
102
{ACAD_REACTORS
330
46
102
}
330
46
100
AcDbScale
 70
     0
300
1:2
140
1.0
141
2.0
290
     0
  0
SCALE
  5
50
102
{ACAD_REACTORS
330
46
102
}
330
46
100
AcDbScale
 70
     0
300
1:4
140
1.0
141
4.0
290
     0
  0
SCALE
  5
51
102
{ACAD_REACTORS
330
46
102
}
330
46
100
AcDbScale
 70
     0
300
1:5
140
1.0
141
5.0
290
     0
  0
SCALE
  5
52
102
{ACAD_REACTORS
330
46
102
}
330
46
100
AcDbScale
 70
     0
300
1:8
140
1.0
141
8.0
290
     0
  0
SCALE
  5
53
102
{ACAD_REACTORS
330
46
102
}
330
46
100
AcDbScale
 70
     0
300
1:10
140
1.0
141
10.0
290
     0
  0
SCALE
  5
54
102
{ACAD_REACTORS
330
46
102
}
330
46
100
AcDbScale
 70
     0
300
1:16
140
1.0
141
16.0
290
     0
  0
SCALE
  5
55
102
{ACAD_REACTORS
330
46
102
}
330
46
100
AcDbScale
 70
     0
300
1:20
140
1.0
141
20.0
290
     0
  0
SCALE
  5
56
102
{ACAD_REACTORS
330
46
102
}
330
46
100
AcDbScale
 70
     0
300
1:30
140
1.0
141
30.0
290
     0
  0
SCALE
  5
57
102
{ACAD_REACTORS
330
46
102
}
330
46
100
AcDbScale
 70
     0
300
1:40
140
1.0
141
40.0
290
     0
  0
SCALE
  5
58
102
{ACAD_REACTORS
330
46
102
}
330
46
100
AcDbScale
 70
     0
300
1:50
140
1.0
141
50.0
290
     0
  0
SCALE
  5
59
102
{ACAD_REACTORS
330
46
102
}
330
46
100
AcDbScale
 70
     0
300
1:100
140
1.0
141
100.0
290
     0
  0
SCALE
  5
5A
102
{ACAD_REACTORS
330
46
102
}
330
46
100
AcDbScale
 70
     0
300
2:1
140
2.0
141
1.0
290
     0
  0
SCALE
  5
5B
102
{ACAD_REACTORS
330
46
102
}
330
46
100
AcDbScale
 70
     0
300
4:1
140
4.0
141
1.0
290
     0
  0
SCALE
  5
5C
102
{ACAD_REACTORS
330
46
102
}
330
46
100
AcDbScale
 70
     0
300
8:1
140
8.0
141
1.0
290
     0
  0
SCALE
  5
5D
102
{ACAD_REACTORS
330
46
102
}
330
46
100
AcDbScale
 70
     0
300
10:1
140
10.0
141
1.0
290
     0
  0
SCALE
  5
5E
102
{ACAD_REACTORS
330
46
102
}
330
46
100
AcDbScale
 70
     0
300
100:1
140
100.0
141
1.0
290
     0
  0
SCALE
  5
5F
102
{ACAD_REACTORS
330
46
102
}
330
46
100
AcDbScale
 70
     0
300
1/128" = 1'-0"
140
0.0078125
141
12.0
290
     0
  0
SCALE
  5
60
102
{ACAD_REACTORS
330
46
102
}
330
46
100
AcDbScale
 70
     0
300
1/64" = 1'-0"
140
0.015625
141
12.0
290
     0
  0
SCALE
  5
61
102
{ACAD_REACTORS
330
46
102
}
330
46
100
AcDbScale
 70
     0
300
1/32" = 1'-0"
140
0.03125
141
12.0
290
     0
  0
SCALE
  5
62
102
{ACAD_REACTORS
330
46
102
}
330
46
100
AcDbScale
 70
     0
300
1/16" = 1'-0"
140
0.0625
141
12.0
290
     0
  0
SCALE
  5
63
102
{ACAD_REACTORS
330
46
102
}
330
46
100
AcDbScale
 70
     0
300
3/32" = 1'-0"
140
0.09375
141
12.0
290
     0
  0
SCALE
  5
64
102
{ACAD_REACTORS
330
46
102
}
330
46
100
AcDbScale
 70
     0
300
1/8" = 1'-0"
140
0.125
141
12.0
290
     0
  0
SCALE
  5
65
102
{ACAD_REACTORS
330
46
102
}
330
46
100
AcDbScale
 70
     0
300
3/16" = 1'-0"
140
0.1875
141
12.0
290
     0
  0
SCALE
  5
66
102
{ACAD_REACTORS
330
46
102
}
330
46
100
AcDbScale
 70
     0
300
1/4" = 1'-0"
140
0.25
141
12.0
290
     0
  0
SCALE
  5
67
102
{ACAD_REACTORS
330
46
102
}
330
46
100
AcDbScale
 70
     0
300
3/8" = 1'-0"
140
0.375
141
12.0
290
     0
  0
SCALE
  5
68
102
{ACAD_REACTORS
330
46
102
}
330
46
100
AcDbScale
 70
     0
300
1/2" = 1'-0"
140
0.5
141
12.0
290
     0
  0
SCALE
  5
69
102
{ACAD_REACTORS
330
46
102
}
330
46
100
AcDbScale
 70
     0
300
3/4" = 1'-0"
140
0.75
141
12.0
290
     0
  0
SCALE
  5
6A
102
{ACAD_REACTORS
330
46
102
}
330
46
100
AcDbScale
 70
     0
300
1" = 1'-0"
140
1.0
141
12.0
290
     0
  0
SCALE
  5
6B
102
{ACAD_REACTORS
330
46
102
}
330
46
100
AcDbScale
 70
     0
300
1-1/2" = 1'-0"
140
1.5
141
12.0
290
     0
  0
SCALE
  5
6C
102
{ACAD_REACTORS
330
46
102
}
330
46
100
AcDbScale
 70
     0
300
3" = 1'-0"
140
3.0
141
12.0
290
     0
  0
SCALE
  5
6D
102
{ACAD_REACTORS
330
46
102
}
330
46
100
AcDbScale
 70
     0
300
6" = 1'-0"
140
6.0
141
12.0
290
     0
  0
SCALE
  5
6E
102
{ACAD_REACTORS
330
46
102
}
330
46
100
AcDbScale
 70
     0
300
1'-0" = 1'-0"
140
12.0
141
12.0
290
     0
  0
TABLESTYLE
  5
4A
102
{ACAD_XDICTIONARY
360
4B
102
}
102
{ACAD_REACTORS
330
47
102
}
330
47
100
AcDbTableStyle
  3
Standard
 70
     0
 71
     0
 40
0.06
 41
0.06
280
     0
281
     0
  7
STANDARD
140
0.18
170
     2
 62
     0
 63
     7
283
     0
274
    -2
284
     1
 64
     0
275
    -2
285
     1
 65
     0
276
    -2
286
     1
 66
     0
277
    -2
287
     1
 67
     0
278
    -2
288
     1
 68
     0
279
    -2
289
     1
 69
     0
  7
STANDARD
140
0.25
170
     5
 62
     0
 63
     7
283
     0
274
    -2
284
     1
 64
     0
275
    -2
285
     1
 65
     0
276
    -2
286
     1
 66
     0
277
    -2
287
     1
 67
     0
278
    -2
288
     1
 68
     0
279
    -2
289
     1
 69
     0
  7
STANDARD
140
0.18
170
     5
 62
     0
 63
     7
283
     0
274
    -2
284
     1
 64
     0
275
    -2
285
     1
 65
     0
276
    -2
286
     1
 66
     0
277
    -2
287
     1
 67
     0
278
    -2
288
     1
 68
     0
279
    -2
289
     1
 69
     0
  0
VISUALSTYLE
  5
2A
102
{ACAD_XDICTIONARY
360
26F
102
}
102
{ACAD_REACTORS
330
2B
102
}
330
2B
100
AcDbVisualStyle
  2
2dWireframe
 70
     4
 71
     0
 72
     2
 73
     0
 90
        0
 40
-0.6
 41
-30.0
 62
     5
 63
     7
 74
     1
 91
        4
 64
     7
 65
   257
 75
     1
175
     1
 42
1.0
 92
        0
 66
   257
 43
1.0
 76
     1
 77
     6
 78
     2
 67
     7
 79
     5
170
     0
171
     0
290
     0
174
     0
 93
        1
 44
0.0
173
     0
291
     0
 45
0.0
1001
ACAD
1000
AcDbSavedByObjectVersion
1070
     0
  0
VISUALSTYLE
  5
248
102
{ACAD_XDICTIONARY
360
280
102
}
102
{ACAD_REACTORS
330
2B
102
}
330
2B
100
AcDbVisualStyle
  2
Basic
 70
     7
 71
     1
 72
     0
 73
     1
 90
        0
 40
-0.6
 41
-30.0
 62
     5
 63
     7
 74
     0
 91
        4
 64
     7
 65
   257
 75
     1
175
     1
 42
1.0
 92
        8
 66
     7
 43
1.0
 76
     1
 77
     6
 78
     2
 67
     7
 79
     5
170
     0
171
     0
290
     0
174
     0
 93
        1
 44
0.0
173
     0
291
     1
 45
0.0
1001
ACAD
1000
AcDbSavedByObjectVersion
1070
     0
  0
VISUALSTYLE
  5
24C
102
{ACAD_XDICTIONARY
360
288
102
}
102
{ACAD_REACTORS
330
2B
102
}
330
2B
100
AcDbVisualStyle
  2
Brighten
 70
    12
 71
     2
 72
     2
 73
     0
 90
        0
 40
-0.6
 41
-30.0
 62
     5
 63
     7
 74
     1
 91
        4
 64
     7
 65
   257
 75
     1
175
     1
 42
1.0
 92
        8
 66
     7
 43
1.0
 76
     1
 77
     6
 78
     2
 67
     7
 79
     5
170
     0
171
     0
290
     0
174
     0
 93
        1
 44
50.0
173
     0
291
     1
 45
0.0
1001
ACAD
1000
AcDbSavedByObjectVersion
1070
     0
  0
VISUALSTYLE
  5
250
102
{ACAD_XDICTIONARY
360
290
102
}
102
{ACAD_REACTORS
330
2B
102
}
330
2B
100
AcDbVisualStyle
  2
ColorChange
 70
    16
 71
     2
 72
     2
 73
     3
 90
        0
 40
-0.6
 41
-30.0
 62
     5
 63
     8
 74
     1
 91
        4
 64
     7
 65
   257
 75
     1
175
     1
 42
1.0
 92
        8
 66
     8
 43
1.0
 76
     1
 77
     6
 78
     2
 67
     7
 79
     5
170
     0
171
     0
290
     0
174
     0
 93
        1
 44
0.0
173
     0
291
     1
 45
0.0
1001
ACAD
1000
AcDbSavedByObjectVersion
1070
     0
  0
VISUALSTYLE
  5
24A
102
{ACAD_XDICTIONARY
360
284
102
}
102
{ACAD_REACTORS
330
2B
102
}
330
2B
100
AcDbVisualStyle
  2
Conceptual
 70
     9
 71
     3
 72
     2
 73
     0
 90
        0
 40
-0.6
 41
-30.0
 62
     5
 63
     7
 74
     2
 91
        2
 64
     7
 65
   257
 75
     1
175
     1
 42
179.0
 92
        8
 66
     7
 43
1.0
 76
     1
 77
     6
 78
     2
 67
     7
 79
     3
170
     0
171
     0
290
     0
174
     0
 93
        1
 44
0.0
173
     0
291
     0
 45
0.0
1001
ACAD
1000
AcDbSavedByObjectVersion
1070
     0
  0
VISUALSTYLE
  5
24B
102
{ACAD_XDICTIONARY
360
286
102
}
102
{ACAD_REACTORS
330
2B
102
}
330
2B
100
AcDbVisualStyle
  2
Dim
 70
    11
 71
     2
 72
     2
 73
     0
 90
        0
 40
-0.6
 41
-30.0
 62
     5
 63
     7
 74
     1
 91
        4
 64
     7
 65
   257
 75
     1
175
     1
 42
1.0
 92
        8
 66
     7
 43
1.0
 76
     1
 77
     6
 78
     2
 67
     7
 79
     5
170
     0
171
     0
290
     0
174
     0
 93
        1
 44
-50.0
173
     0
291
     1
 45
0.0
1001
ACAD
1000
AcDbSavedByObjectVersion
1070
     0
  0
VISUALSTYLE
  5
258
102
{ACAD_XDICTIONARY
360
2A0
102
}
102
{ACAD_REACTORS
330
2B
102
}
330
2B
100
AcDbVisualStyle
  2
EdgeColorOff
 70
    22
 71
     2
 72
     2
 73
     0
 90
        0
 40
-0.6
 41
-30.0
 62
     5
 63
     7
 74
     1
 91
        4
 64
     7
 65
   257
 75
     1
175
     1
 42
1.0
 92
        8
 66
     7
 43
1.0
 76
     1
 77
     6
 78
     2
 67
     7
 79
     5
170
     0
171
     0
290
     0
174
     0
 93
        1
 44
0.0
173
     0
291
     1
 45
0.0
1001
ACAD
1000
AcDbSavedByObjectVersion
1070
     0
  0
VISUALSTYLE
  5
24F
102
{ACAD_XDICTIONARY
360
28E
102
}
102
{ACAD_REACTORS
330
2B
102
}
330
2B
100
AcDbVisualStyle
  2
Facepattern
 70
    15
 71
     2
 72
     2
 73
     0
 90
        0
 40
-0.6
 41
-30.0
 62
     5
 63
     7
 74
     1
 91
        4
 64
     7
 65
   257
 75
     1
175
     1
 42
1.0
 92
        8
 66
     7
 43
1.0
 76
     1
 77
     6
 78
     2
 67
     7
 79
     5
170
     0
171
     0
290
     0
174
     0
 93
        1
 44
0.0
173
     0
291
     1
 45
0.0
1001
ACAD
1000
AcDbSavedByObjectVersion
1070
     0
  0
VISUALSTYLE
  5
244
102
{ACAD_XDICTIONARY
360
278
102
}
102
{ACAD_REACTORS
330
2B
102
}
330
2B
100
AcDbVisualStyle
  2
Flat
 70
     0
 71
     2
 72
     1
 73
     1
 90
        2
 40
-0.6
 41
30.0
 62
     5
 63
     7
 74
     0
 91
        0
 64
     7
 65
   257
 75
     1
175
     1
 42
1.0
 92
        8
 66
     7
 43
1.0
 76
     1
 77
     6
 78
     2
 67
     7
 79
     5
170
     0
171
     0
290
     0
174
     0
 93
       13
 44
0.0
173
     0
291
     1
 45
0.0
1001
ACAD
1000
AcDbSavedByObjectVersion
1070
     0
  0
VISUALSTYLE
  5
245
102
{ACAD_XDICTIONARY
360
27A
102
}
102
{ACAD_REACTORS
330
2B
102
}
330
2B
100
AcDbVisualStyle
  2
FlatWithEdges
 70
     1
 71
     2
 72
     1
 73
     1
 90
        2
 40
-0.6
 41
30.0
 62
     5
 63
     7
 74
     1
 91
        0
 64
     7
 65
   257
 75
     1
175
     1
 42
1.0
 92
        0
 66
   257
 43
1.0
 76
     1
 77
     6
 78
     2
 67
     7
 79
     5
170
     0
171
     0
290
     0
174
     0
 93
       13
 44
0.0
173
     0
291
     1
 45
0.0
1001
ACAD
1000
AcDbSavedByObjectVersion
1070
     0
  0
VISUALSTYLE
  5
246
102
{ACAD_XDICTIONARY
360
27C
102
}
102
{ACAD_REACTORS
330
2B
102
}
330
2B
100
AcDbVisualStyle
  2
Gouraud
 70
     2
 71
     2
 72
     2
 73
     1
 90
        2
 40
-0.6
 41
30.0
 62
     5
 63
     7
 74
     0
 91
        0
 64
     7
 65
   257
 75
     1
175
     1
 42
1.0
 92
        0
 66
     7
 43
1.0
 76
     1
 77
     6
 78
     2
 67
     7
 79
     5
170
     0
171
     0
290
     0
174
     0
 93
       13
 44
0.0
173
     0
291
     1
 45
0.0
1001
ACAD
1000
AcDbSavedByObjectVersion
1070
     0
  0
VISUALSTYLE
  5
247
102
{ACAD_XDICTIONARY
360
27E
102
}
102
{ACAD_REACTORS
330
2B
102
}
330
2B
100
AcDbVisualStyle
  2
GouraudWithEdges
 70
     3
 71
     2
 72
     2
 73
     1
 90
        2
 40
-0.6
 41
30.0
 62
     5
 63
     7
 74
     1
 91
        0
 64
     7
 65
   257
 75
     1
175
     1
 42
1.0
 92
        0
 66
   257
 43
1.0
 76
     1
 77
     6
 78
     2
 67
     7
 79
     5
170
     0
171
     0
290
     0
174
     0
 93
       13
 44
0.0
173
     0
291
     1
 45
0.0
1001
ACAD
1000
AcDbSavedByObjectVersion
1070
     0
  0
VISUALSTYLE
  5
249
102
{ACAD_XDICTIONARY
360
282
102
}
102
{ACAD_REACTORS
330
2B
102
}
330
2B
100
AcDbVisualStyle
  2
Hidden
 70
     6
 71
     1
 72
     2
 73
     2
 90
        0
 40
-0.6
 41
-30.0
 62
     5
 63
     7
 74
     2
 91
        2
 64
     7
 65
   257
 75
     2
175
     1
 42
40.0
 92
        0
 66
   257
 43
1.0
 76
     1
 77
     6
 78
     2
 67
     7
 79
     3
170
     0
171
     0
290
     0
174
     0
 93
        1
 44
0.0
173
     0
291
     0
 45
0.0
1001
ACAD
1000
AcDbSavedByObjectVersion
1070
     0
  0
VISUALSTYLE
  5
256
102
{ACAD_XDICTIONARY
360
29C
102
}
102
{ACAD_REACTORS
330
2B
102
}
330
2B
100
AcDbVisualStyle
  2
JitterOff
 70
    20
 71
     2
 72
     2
 73
     0
 90
        0
 40
-0.6
 41
-30.0
 62
     5
 63
     7
 74
     1
 91
        4
 64
     7
 65
   257
 75
     1
175
     1
 42
1.0
 92
       10
 66
     7
 43
1.0
 76
     1
 77
     6
 78
     2
 67
     7
 79
     5
170
     0
171
     0
290
     0
174
     0
 93
        1
 44
0.0
173
     0
291
     1
 45
0.0
1001
ACAD
1000
AcDbSavedByObjectVersion
1070
     0
  0
VISUALSTYLE
  5
24E
102
{ACAD_XDICTIONARY
360
28C
102
}
102
{ACAD_REACTORS
330
2B
102
}
330
2B
100
AcDbVisualStyle
  2
Linepattern
 70
    14
 71
     2
 72
     2
 73
     0
 90
        0
 40
-0.6
 41
-30.0
 62
     5
 63
     7
 74
     1
 91
        4
 64
     7
 65
   257
 75
     7
175
     7
 42
1.0
 92
        8
 66
     7
 43
1.0
 76
     1
 77
     6
 78
     2
 67
     7
 79
     5
170
     0
171
     0
290
     0
174
     0
 93
        1
 44
0.0
173
     0
291
     1
 45
0.0
1001
ACAD
1000
AcDbSavedByObjectVersion
1070
     0
  0
VISUALSTYLE
  5
257
102
{ACAD_XDICTIONARY
360
29E
102
}
102
{ACAD_REACTORS
330
2B
102
}
330
2B
100
AcDbVisualStyle
  2
OverhangOff
 70
    21
 71
     2
 72
     2
 73
     0
 90
        0
 40
-0.6
 41
-30.0
 62
     5
 63
     7
 74
     1
 91
        4
 64
     7
 65
   257
 75
     1
175
     1
 42
1.0
 92
        9
 66
     7
 43
1.0
 76
     1
 77
     6
 78
     2
 67
     7
 79
     5
170
     0
171
     0
290
     0
174
     0
 93
        1
 44
0.0
173
     0
291
     1
 45
0.0
1001
ACAD
1000
AcDbSavedByObjectVersion
1070
     0
  0
VISUALSTYLE
  5
4C
102
{ACAD_XDICTIONARY
360
274
102
}
102
{ACAD_REACTORS
330
2B
102
}
330
2B
100
AcDbVisualStyle
  2
Realistic
 70
     8
 71
     2
 72
     2
 73
     0
 90
        0
 40
-0.6
 41
-30.0
 62
     5
 63
     7
 74
     1
 91
        0
 64
     7
 65
   257
 75
     1
175
     1
 42
1.0
 92
        8
 66
     8
 43
1.0
 76
     1
 77
     6
 78
     2
 67
     7
 79
     5
170
     0
171
     0
290
     0
174
     0
 93
       13
 44
0.0
173
     0
291
     0
 45
0.0
1001
ACAD
1000
AcDbSavedByObjectVersion
1070
     0
  0
VISUALSTYLE
  5
255
102
{ACAD_XDICTIONARY
360
29A
102
}
102
{ACAD_REACTORS
330
2B
102
}
330
2B
100
AcDbVisualStyle
  2
Shaded
 70
    27
 71
     2
 72
     2
 73
     1
 90
        2
 40
-0.6
 41
30.0
 62
     5
 63
     7
 74
     0
 91
        4
 64
     7
 65
   257
 75
     1
175
     1
 42
1.0
 92
        8
 66
   257
 43
1.0
 76
     1
 77
     6
 78
     2
 67
     8
 79
     3
170
     0
171
     0
290
     0
174
     0
 93
        5
 44
0.0
173
     0
291
     0
 45
0.0
1001
ACAD
1000
AcDbSavedByObjectVersion
1070
     0
  0
VISUALSTYLE
  5
254
102
{ACAD_XDICTIONARY
360
298
102
}
102
{ACAD_REACTORS
330
2B
102
}
330
2B
100
AcDbVisualStyle
  2
Shaded with edges
 70
    26
 71
     2
 72
     2
 73
     1
 90
        2
 40
-0.6
 41
30.0
 62
     5
 63
     7
 74
     1
 91
       10
 64
     7
 65
   257
 75
     2
175
     1
 42
1.0
 92
        8
 66
   257
 43
1.0
 76
     1
 77
     6
 78
     2
 67
     7
 79
     3
170
     0
171
     0
290
     0
174
     0
 93
        5
 44
0.0
173
     0
291
     0
 45
0.0
1001
ACAD
1000
AcDbSavedByObjectVersion
1070
     0
  0
VISUALSTYLE
  5
251
102
{ACAD_XDICTIONARY
360
292
102
}
102
{ACAD_REACTORS
330
2B
102
}
330
2B
100
AcDbVisualStyle
  2
Shades of Gray
 70
    23
 71
     2
 72
     2
 73
     3
 90
        0
 40
-0.6
 41
-30.0
 62
     5
 63
     7
 74
     2
 91
        2
 64
     7
 65
     7
 75
     1
175
     1
 42
40.0
 92
        8
 66
     7
 43
1.0
 76
     1
 77
     6
 78
     2
 67
     7
 79
     3
170
     0
171
     0
290
     0
174
     0
 93
        1
 44
0.0
173
     0
291
     0
 45
0.0
1001
ACAD
1000
AcDbSavedByObjectVersion
1070
     0
  0
VISUALSTYLE
  5
252
102
{ACAD_XDICTIONARY
360
294
102
}
102
{ACAD_REACTORS
330
2B
102
}
330
2B
100
AcDbVisualStyle
  2
Sketchy
 70
    24
 71
     1
 72
     2
 73
     2
 90
        0
 40
-0.6
 41
-30.0
 62
     5
 63
     7
 74
     2
 91
        2
 64
     7
 65
     7
 75
     1
175
     1
 42
40.0
 92
       11
 66
     7
 43
1.0
 76
     1
 77
     6
 78
     2
 67
     7
 79
     6
170
     0
171
     0
290
     0
174
     0
 93
        1
 44
0.0
173
     0
291
     0
 45
0.0
1001
ACAD
1000
AcDbSavedByObjectVersion
1070
     0
  0
VISUALSTYLE
  5
24D
102
{ACAD_XDICTIONARY
360
28A
102
}
102
{ACAD_REACTORS
330
2B
102
}
330
2B
100
AcDbVisualStyle
  2
Thicken
 70
    13
 71
     2
 72
     2
 73
     0
 90
        0
 40
-0.6
 41
-30.0
 62
     5
 63
     7
 74
     1
 91
        4
 64
     7
 65
   257
 75
     1
175
     1
 42
1.0
 92
       12
 66
     7
 43
1.0
 76
     1
 77
     6
 78
     2
 67
     7
 79
     5
170
     0
171
     0
290
     0
174
     0
 93
        1
 44
0.0
173
     0
291
     1
 45
0.0
1001
ACAD
1000
AcDbSavedByObjectVersion
1070
     0
  0
VISUALSTYLE
  5
4D
102
{ACAD_XDICTIONARY
360
276
102
}
102
{ACAD_REACTORS
330
2B
102
}
330
2B
100
AcDbVisualStyle
  2
Wireframe
 70
     5
 71
     0
 72
     2
 73
     0
 90
        0
 40
-0.6
 41
-30.0
 62
     5
 63
     7
 74
     1
 91
        4
 64
     7
 65
   257
 75
     1
175
     1
 42
1.0
 92
        0
 66
   257
 43
1.0
 76
     1
 77
     6
 78
     2
 67
     7
 79
     3
170
     0
171
     0
290
     0
174
     0
 93
        1
 44
0.0
173
     0
291
     0
 45
0.0
1001
ACAD
1000
AcDbSavedByObjectVersion
1070
     0
  0
VISUALSTYLE
  5
253
102
{ACAD_XDICTIONARY
360
296
102
}
102
{ACAD_REACTORS
330
2B
102
}
330
2B
100
AcDbVisualStyle
  2
X-Ray
 70
    25
 71
     2
 72
     2
 73
     1
 90
        1
 40
0.5
 41
-30.0
 62
     5
 63
     7
 74
     1
 91
        0
 64
     7
 65
   257
 75
     1
175
     1
 42
1.0
 92
        8
 66
     7
 43
1.0
 76
     1
 77
     6
 78
     2
 67
     7
 79
     3
170
     0
171
     0
290
     0
174
     0
 93
       13
 44
0.0
173
     0
291
     0
 45
0.0
1001
ACAD
1000
AcDbSavedByObjectVersion
1070
     0
  0
DICTIONARYVAR
  5
23F
102
{ACAD_REACTORS
330
23B
102
}
330
23B
100
DictionaryVariables
280
     0
  1
1:1
  0
DICTIONARYVAR
  5
23D
102
{ACAD_REACTORS
330
23B
102
}
330
23B
100
DictionaryVariables
280
     0
  1
STANDARD
  0
DICTIONARYVAR
  5
23C
102
{ACAD_REACTORS
330
23B
102
}
330
23B
100
DictionaryVariables
280
     0
  1
STANDARD
  0
DICTIONARYVAR
  5
260
102
{ACAD_REACTORS
330
23B
102
}
330
23B
100
DictionaryVariables
280
     0
  1
1
  0
DICTIONARYVAR
  5
25F
102
{ACAD_REACTORS
330
23B
102
}
330
23B
100
DictionaryVariables
280
     0
  1
1
  0
DICTIONARYVAR
  5
25E
102
{ACAD_REACTORS
330
23B
102
}
330
23B
100
DictionaryVariables
280
     0
  1
0
  0
DICTIONARYVAR
  5
241
102
{ACAD_REACTORS
330
23B
102
}
330
23B
100
DictionaryVariables
280
     0
  1
1
  0
DICTIONARYVAR
  5
242
102
{ACAD_REACTORS
330
23B
102
}
330
23B
100
DictionaryVariables
280
     0
  1
15
  0
DICTIONARYVAR
  5
240
102
{ACAD_REACTORS
330
23B
102
}
330
23B
100
DictionaryVariables
280
     0
  1
0
  0
DICTIONARYVAR
  5
23E
102
{ACAD_REACTORS
330
23B
102
}
330
23B
100
DictionaryVariables
280
     0
  1
0
  0
DICTIONARYVAR
  5
261
102
{ACAD_REACTORS
330
23B
102
}
330
23B
100
DictionaryVariables
280
     0
  1
0
  0
DICTIONARYVAR
  5
25D
102
{ACAD_REACTORS
330
23B
102
}
330
23B
100
DictionaryVariables
280
     0
  1
127
  0
DICTIONARYVAR
  5
262
102
{ACAD_REACTORS
330
23B
102
}
330
23B
100
DictionaryVariables
280
     0
  1
2
  0
DICTIONARY
  5
26D
330
1A
100
AcDbDictionary
280
     1
281
     1
  3
ACAD_XREC_ROUNDTRIP
360
26E
  0
DICTIONARY
  5
26B
330
15
100
AcDbDictionary
280
     1
281
     1
  3
ACAD_XREC_ROUNDTRIP
360
26C
  0
DICTIONARY
  5
3E
330
3D
100
AcDbDictionary
280
     1
281
     1
  3
ACAD_XREC_ROUNDTRIP
360
272
  3
BUMPTILE
360
3F
  3
DIFFUSETILE
360
40
  3
OPACITYTILE
360
41
  3
REFLECTIONTILE
360
42
  3
REFRACTIONTILE
360
43
  3
SPECULARTILE
360
44
  0
DICTIONARY
  5
36
330
35
100
AcDbDictionary
280
     1
281
     1
  3
ACAD_XREC_ROUNDTRIP
360
271
  3
BUMPTILE
360
37
  3
DIFFUSETILE
360
38
  3
OPACITYTILE
360
39
  3
REFLECTIONTILE
360
3A
  3
REFRACTIONTILE
360
3B
  3
SPECULARTILE
360
3C
  0
DICTIONARY
  5
C
330
A
100
AcDbDictionary
280
     1
281
     1
  3
ACAD_XREC_ROUNDTRIP
360
26A
  3
BUMPTILE
360
D
  3
DIFFUSETILE
360
E
  3
OPACITYTILE
360
F
  3
REFLECTIONTILE
360
10
  3
REFRACTIONTILE
360
11
  3
SPECULARTILE
360
12
  0
DICTIONARY
  5
4B
330
4A
100
AcDbDictionary
280
     1
281
     1
  3
ACAD_ROUNDTRIP_2008_TABLESTYLE_CELLSTYLEMAP
360
263
  3
ACAD_XREC_ROUNDTRIP
360
273
  0
DICTIONARY
  5
26F
330
2A
100
AcDbDictionary
280
     1
281
     1
  3
ACAD_XREC_ROUNDTRIP
360
270
  0
DICTIONARY
  5
280
330
248
100
AcDbDictionary
280
     1
281
     1
  3
ACAD_XREC_ROUNDTRIP
360
281
  0
DICTIONARY
  5
288
330
24C
100
AcDbDictionary
280
     1
281
     1
  3
ACAD_XREC_ROUNDTRIP
360
289
  0
DICTIONARY
  5
290
330
250
100
AcDbDictionary
280
     1
281
     1
  3
ACAD_XREC_ROUNDTRIP
360
291
  0
DICTIONARY
  5
284
330
24A
100
AcDbDictionary
280
     1
281
     1
  3
ACAD_XREC_ROUNDTRIP
360
285
  0
DICTIONARY
  5
286
330
24B
100
AcDbDictionary
280
     1
281
     1
  3
ACAD_XREC_ROUNDTRIP
360
287
  0
DICTIONARY
  5
2A0
330
258
100
AcDbDictionary
280
     1
281
     1
  3
ACAD_XREC_ROUNDTRIP
360
2A1
  0
DICTIONARY
  5
28E
330
24F
100
AcDbDictionary
280
     1
281
     1
  3
ACAD_XREC_ROUNDTRIP
360
28F
  0
DICTIONARY
  5
278
330
244
100
AcDbDictionary
280
     1
281
     1
  3
ACAD_XREC_ROUNDTRIP
360
279
  0
DICTIONARY
  5
27A
330
245
100
AcDbDictionary
280
     1
281
     1
  3
ACAD_XREC_ROUNDTRIP
360
27B
  0
DICTIONARY
  5
27C
330
246
100
AcDbDictionary
280
     1
281
     1
  3
ACAD_XREC_ROUNDTRIP
360
27D
  0
DICTIONARY
  5
27E
330
247
100
AcDbDictionary
280
     1
281
     1
  3
ACAD_XREC_ROUNDTRIP
360
27F
  0
DICTIONARY
  5
282
330
249
100
AcDbDictionary
280
     1
281
     1
  3
ACAD_XREC_ROUNDTRIP
360
283
  0
DICTIONARY
  5
29C
330
256
100
AcDbDictionary
280
     1
281
     1
  3
ACAD_XREC_ROUNDTRIP
360
29D
  0
DICTIONARY
  5
28C
330
24E
100
AcDbDictionary
280
     1
281
     1
  3
ACAD_XREC_ROUNDTRIP
360
28D
  0
DICTIONARY
  5
29E
330
257
100
AcDbDictionary
280
     1
281
     1
  3
ACAD_XREC_ROUNDTRIP
360
29F
  0
DICTIONARY
  5
274
330
4C
100
AcDbDictionary
280
     1
281
     1
  3
ACAD_XREC_ROUNDTRIP
360
275
  0
DICTIONARY
  5
29A
330
255
100
AcDbDictionary
280
     1
281
     1
  3
ACAD_XREC_ROUNDTRIP
360
29B
  0
DICTIONARY
  5
298
330
254
100
AcDbDictionary
280
     1
281
     1
  3
ACAD_XREC_ROUNDTRIP
360
299
  0
DICTIONARY
  5
292
330
251
100
AcDbDictionary
280
     1
281
     1
  3
ACAD_XREC_ROUNDTRIP
360
293
  0
DICTIONARY
  5
294
330
252
100
AcDbDictionary
280
     1
281
     1
  3
ACAD_XREC_ROUNDTRIP
360
295
  0
DICTIONARY
  5
28A
330
24D
100
AcDbDictionary
280
     1
281
     1
  3
ACAD_XREC_ROUNDTRIP
360
28B
  0
DICTIONARY
  5
276
330
4D
100
AcDbDictionary
280
     1
281
     1
  3
ACAD_XREC_ROUNDTRIP
360
277
  0
DICTIONARY
  5
296
330
253
100
AcDbDictionary
280
     1
281
     1
  3
ACAD_XREC_ROUNDTRIP
360
297
  0
XRECORD
  5
26E
102
{ACAD_REACTORS
330
26D
102
}
330
26D
100
AcDbXrecord
280
     1
102
SHADEPLOT
 70
     0
102
SHADEPLOTRESLEVEL
 70
     2
102
SHADEPLOTCUSTOMDPI
 70
   300
  0
XRECORD
  5
26C
102
{ACAD_REACTORS
330
26B
102
}
330
26B
100
AcDbXrecord
280
     1
102
SHADEPLOT
 70
     0
102
SHADEPLOTRESLEVEL
 70
     2
102
SHADEPLOTCUSTOMDPI
 70
   300
  0
XRECORD
  5
272
102
{ACAD_REACTORS
330
3E
102
}
330
3E
100
AcDbXrecord
280
     1
102
MATERIAL
148
0.0
149
0.0
149
0.0
 93
        0
 94
      127
282
     0
 72
     0
 77
     0
171
     0
175
     0
179
     0
273
     0
  0
XRECORD
  5
3F
102
{ACAD_REACTORS
330
3E
102
}
330
3E
100
AcDbXrecord
280
     1
270
     1
271
     1
  0
XRECORD
  5
40
102
{ACAD_REACTORS
330
3E
102
}
330
3E
100
AcDbXrecord
280
     1
270
     1
271
     1
  0
XRECORD
  5
41
102
{ACAD_REACTORS
330
3E
102
}
330
3E
100
AcDbXrecord
280
     1
270
     1
271
     1
  0
XRECORD
  5
42
102
{ACAD_REACTORS
330
3E
102
}
330
3E
100
AcDbXrecord
280
     1
270
     1
271
     1
  0
XRECORD
  5
43
102
{ACAD_REACTORS
330
3E
102
}
330
3E
100
AcDbXrecord
280
     1
270
     1
271
     1
  0
XRECORD
  5
44
102
{ACAD_REACTORS
330
3E
102
}
330
3E
100
AcDbXrecord
280
     1
270
     1
271
     1
  0
XRECORD
  5
271
102
{ACAD_REACTORS
330
36
102
}
330
36
100
AcDbXrecord
280
     1
102
MATERIAL
148
0.0
149
0.0
149
0.0
 93
        0
 94
      127
282
     0
 72
     0
 77
     0
171
     0
175
     0
179
     0
273
     0
  0
XRECORD
  5
37
102
{ACAD_REACTORS
330
36
102
}
330
36
100
AcDbXrecord
280
     1
270
     1
271
     1
  0
XRECORD
  5
38
102
{ACAD_REACTORS
330
36
102
}
330
36
100
AcDbXrecord
280
     1
270
     1
271
     1
  0
XRECORD
  5
39
102
{ACAD_REACTORS
330
36
102
}
330
36
100
AcDbXrecord
280
     1
270
     1
271
     1
  0
XRECORD
  5
3A
102
{ACAD_REACTORS
330
36
102
}
330
36
100
AcDbXrecord
280
     1
270
     1
271
     1
  0
XRECORD
  5
3B
102
{ACAD_REACTORS
330
36
102
}
330
36
100
AcDbXrecord
280
     1
270
     1
271
     1
  0
XRECORD
  5
3C
102
{ACAD_REACTORS
330
36
102
}
330
36
100
AcDbXrecord
280
     1
270
     1
271
     1
  0
XRECORD
  5
26A
102
{ACAD_REACTORS
330
C
102
}
330
C
100
AcDbXrecord
280
     1
102
MATERIAL
148
0.0
149
0.0
149
0.0
 93
        0
 94
      127
282
     0
 72
     0
 77
     0
171
     0
175
     0
179
     0
273
     0
  0
XRECORD
  5
D
102
{ACAD_REACTORS
330
C
102
}
330
C
100
AcDbXrecord
280
     1
270
     1
271
     1
  0
XRECORD
  5
E
102
{ACAD_REACTORS
330
C
102
}
330
C
100
AcDbXrecord
280
     1
270
     1
271
     1
  0
XRECORD
  5
F
102
{ACAD_REACTORS
330
C
102
}
330
C
100
AcDbXrecord
280
     1
270
     1
271
     1
  0
XRECORD
  5
10
102
{ACAD_REACTORS
330
C
102
}
330
C
100
AcDbXrecord
280
     1
270
     1
271
     1
  0
XRECORD
  5
11
102
{ACAD_REACTORS
330
C
102
}
330
C
100
AcDbXrecord
280
     1
270
     1
271
     1
  0
XRECORD
  5
12
102
{ACAD_REACTORS
330
C
102
}
330
C
100
AcDbXrecord
280
     1
270
     1
271
     1
  0
CELLSTYLEMAP
  5
263
102
{ACAD_REACTORS
330
4B
102
}
330
4B
100
AcDbCellStyleMap
 90
        3
300
CELLSTYLE
  1
TABLEFORMAT_BEGIN
 90
        5
170
     1
 91
        0
 92
    32768
 62
   257
 93
        1
300
CONTENTFORMAT
  1
CONTENTFORMAT_BEGIN
 90
        0
 91
        0
 92
      512
 93
        0
300

 40
0.0
140
1.0
 94
        5
 62
     0
340
21
144
0.25
309
CONTENTFORMAT_END
171
     0
 94
        0
309
TABLEFORMAT_END
  1
CELLSTYLE_BEGIN
 90
        1
 91
        1
300
_TITLE
309
CELLSTYLE_END
300
CELLSTYLE
  1
TABLEFORMAT_BEGIN
 90
        5
170
     1
 91
        0
 92
        0
 62
   257
 93
        1
300
CONTENTFORMAT
  1
CONTENTFORMAT_BEGIN
 90
        0
 91
        0
 92
      512
 93
        0
300

 40
0.0
140
1.0
 94
        5
 62
     0
340
21
144
0.18
309
CONTENTFORMAT_END
171
     0
 94
        0
309
TABLEFORMAT_END
  1
CELLSTYLE_BEGIN
 90
        2
 91
        1
300
_HEADER
309
CELLSTYLE_END
300
CELLSTYLE
  1
TABLEFORMAT_BEGIN
 90
        5
170
     1
 91
        0
 92
        0
 62
   257
 93
        1
300
CONTENTFORMAT
  1
CONTENTFORMAT_BEGIN
 90
        0
 91
        0
 92
      512
 93
        0
300

 40
0.0
140
1.0
 94
        2
 62
     0
340
21
144
0.18
309
CONTENTFORMAT_END
171
     0
 94
        0
309
TABLEFORMAT_END
  1
CELLSTYLE_BEGIN
 90
        3
 91
        2
300
_DATA
309
CELLSTYLE_END
  0
XRECORD
  5
273
102
{ACAD_REACTORS
330
4B
102
}
330
4B
100
AcDbXrecord
280
     1
102
ACAD_ROUNDTRIP_PRE2007_TABLESTYLE
 90
      512
 91
        0
  1

 92
      512
 93
        0
  2

 94
      512
 95
        0
  3

  0
XRECORD
  5
270
102
{ACAD_REACTORS
330
26F
102
}
330
26F
100
AcDbXrecord
280
     1
102
RTVSPropertyOp0
 70
     1
102
RTVSPropertyOp1
 70
     1
102
RTVSPropertyOp2
 70
     1
102
RTVSPropertyOp3
 70
     1
102
RTVSPropertyOp4
 70
     1
102
RTVSPropertyOp5
 70
     1
102
RTVSPropertyOp6
 70
     1
102
RTVSPropertyOp7
 70
     1
102
RTVSPropertyOp8
 70
     1
102
RTVSPropertyOp9
 70
     1
102
RTVSPropertyOp10
 70
     1
102
RTVSPropertyOp11
 70
     1
102
RTVSPropertyOp12
 70
     1
102
RTVSPropertyOp13
 70
     1
102
RTVSPropertyOp14
 70
     1
102
RTVSPropertyOp15
 70
     1
102
RTVSPropertyOp16
 70
     1
102
RTVSPropertyOp17
 70
     1
102
RTVSPropertyOp18
 70
     1
102
RTVSPropertyOp19
 70
     1
102
RTVSPropertyOp20
 70
     1
102
RTVSPropertyOp21
 70
     1
102
RTVSPropertyOp22
 70
     1
102
RTVSPropertyOp23
 70
     1
102
RTVSPropertyOp24
 70
     1
102
RTVSPropertyOp25
 70
     1
102
RTVSPropertyOp26
 70
     1
102
RTVSPropertyOp27
 70
     1
102
RTVSPropertyOp28
 70
     1
102
RTVSPropertyOp29
 70
     1
102
RTVSPropertyOp30
 70
     1
102
RTVSPropertyOp31
 70
     1
102
RTVSPropertyOp32
 70
     1
  0
XRECORD
  5
281
102
{ACAD_REACTORS
330
280
102
}
330
280
100
AcDbXrecord
280
     1
102
RTVSPropertyOp0
 70
     1
102
RTVSPropertyOp1
 70
     1
102
RTVSPropertyOp2
 70
     1
102
RTVSPropertyOp3
 70
     1
102
RTVSPropertyOp4
 70
     1
102
RTVSPropertyOp5
 70
     1
102
RTVSPropertyOp6
 70
     1
102
RTVSPropertyOp7
 70
     1
102
RTVSPropertyOp8
 70
     1
102
RTVSPropertyOp9
 70
     1
102
RTVSPropertyOp10
 70
     1
102
RTVSPropertyOp11
 70
     1
102
RTVSPropertyOp12
 70
     1
102
RTVSPropertyOp13
 70
     1
102
RTVSPropertyOp14
 70
     1
102
RTVSPropertyOp15
 70
     1
102
RTVSPropertyOp16
 70
     1
102
RTVSPropertyOp17
 70
     1
102
RTVSPropertyOp18
 70
     1
102
RTVSPropertyOp19
 70
     1
102
RTVSPropertyOp20
 70
     1
102
RTVSPropertyOp21
 70
     1
102
RTVSPropertyOp22
 70
     1
102
RTVSPropertyOp23
 70
     1
102
RTVSPropertyOp24
 70
     1
102
RTVSPropertyOp25
 70
     1
102
RTVSPropertyOp26
 70
     1
102
RTVSPropertyOp27
 70
     1
102
RTVSPropertyOp28
 70
     1
102
RTVSPropertyOp29
 70
     1
102
RTVSPropertyOp30
 70
     1
102
RTVSPropertyOp31
 70
     1
102
RTVSPropertyOp32
 70
     1
  0
XRECORD
  5
289
102
{ACAD_REACTORS
330
288
102
}
330
288
100
AcDbXrecord
280
     1
102
RTVSPropertyOp0
 70
     1
102
RTVSPropertyOp1
 70
     1
102
RTVSPropertyOp2
 70
     1
102
RTVSPropertyOp3
 70
     1
102
RTVSPropertyOp4
 70
     1
102
RTVSPropertyOp5
 70
     1
102
RTVSPropertyOp6
 70
     1
102
RTVSPropertyOp7
 70
     1
102
RTVSPropertyOp8
 70
     1
102
RTVSPropertyOp9
 70
     1
102
RTVSPropertyOp10
 70
     1
102
RTVSPropertyOp11
 70
     1
102
RTVSPropertyOp12
 70
     1
102
RTVSPropertyOp13
 70
     1
102
RTVSPropertyOp14
 70
     1
102
RTVSPropertyOp15
 70
     1
102
RTVSPropertyOp16
 70
     1
102
RTVSPropertyOp17
 70
     1
102
RTVSPropertyOp18
 70
     1
102
RTVSPropertyOp19
 70
     1
102
RTVSPropertyOp20
 70
     1
102
RTVSPropertyOp21
 70
     1
102
RTVSPropertyOp22
 70
     1
102
RTVSPropertyOp23
 70
     1
102
RTVSPropertyOp24
 70
     1
102
RTVSPropertyOp25
 70
     1
102
RTVSPropertyOp26
 70
     1
102
RTVSPropertyOp27
 70
     1
102
RTVSPropertyOp28
 70
     1
102
RTVSPropertyOp29
 70
     1
102
RTVSPropertyOp30
 70
     1
102
RTVSPropertyOp31
 70
     1
102
RTVSPropertyOp32
 70
     1
  0
XRECORD
  5
291
102
{ACAD_REACTORS
330
290
102
}
330
290
100
AcDbXrecord
280
     1
102
RTVSPropertyOp0
 70
     1
102
RTVSPropertyOp1
 70
     1
102
RTVSPropertyOp2
 70
     1
102
RTVSPropertyOp3
 70
     1
102
RTVSPropertyOp4
 70
     1
102
RTVSPropertyOp5
 70
     1
102
RTVSPropertyOp6
 70
     1
102
RTVSPropertyOp7
 70
     1
102
RTVSPropertyOp8
 70
     1
102
RTVSPropertyOp9
 70
     1
102
RTVSPropertyOp10
 70
     1
102
RTVSPropertyOp11
 70
     1
102
RTVSPropertyOp12
 70
     1
102
RTVSPropertyOp13
 70
     1
102
RTVSPropertyOp14
 70
     1
102
RTVSPropertyOp15
 70
     1
102
RTVSPropertyOp16
 70
     1
102
RTVSPropertyOp17
 70
     1
102
RTVSPropertyOp18
 70
     1
102
RTVSPropertyOp19
 70
     1
102
RTVSPropertyOp20
 70
     1
102
RTVSPropertyOp21
 70
     1
102
RTVSPropertyOp22
 70
     1
102
RTVSPropertyOp23
 70
     1
102
RTVSPropertyOp24
 70
     1
102
RTVSPropertyOp25
 70
     1
102
RTVSPropertyOp26
 70
     1
102
RTVSPropertyOp27
 70
     1
102
RTVSPropertyOp28
 70
     1
102
RTVSPropertyOp29
 70
     1
102
RTVSPropertyOp30
 70
     1
102
RTVSPropertyOp31
 70
     1
102
RTVSPropertyOp32
 70
     1
  0
XRECORD
  5
285
102
{ACAD_REACTORS
330
284
102
}
330
284
100
AcDbXrecord
280
     1
102
RTVSPropertyOp0
 70
     1
102
RTVSPropertyOp1
 70
     1
102
RTVSPropertyOp2
 70
     1
102
RTVSPropertyOp3
 70
     1
102
RTVSPropertyOp4
 70
     1
102
RTVSPropertyOp5
 70
     1
102
RTVSPropertyOp6
 70
     1
102
RTVSPropertyOp7
 70
     1
102
RTVSPropertyOp8
 70
     1
102
RTVSPropertyOp9
 70
     1
102
RTVSPropertyOp10
 70
     1
102
RTVSPropertyOp11
 70
     1
102
RTVSPropertyOp12
 70
     1
102
RTVSPropertyOp13
 70
     1
102
RTVSPropertyOp14
 70
     1
102
RTVSPropertyOp15
 70
     1
102
RTVSPropertyOp16
 70
     1
102
RTVSPropertyOp17
 70
     1
102
RTVSPropertyOp18
 70
     1
102
RTVSPropertyOp19
 70
     1
102
RTVSPropertyOp20
 70
     1
102
RTVSPropertyOp21
 70
     1
102
RTVSPropertyOp22
 70
     1
102
RTVSPropertyOp23
 70
     1
102
RTVSPropertyOp24
 70
     1
102
RTVSPropertyOp25
 70
     1
102
RTVSPropertyOp26
 70
     1
102
RTVSPropertyOp27
 70
     1
102
RTVSPropertyOp28
 70
     1
102
RTVSPropertyOp29
 70
     1
102
RTVSPropertyOp30
 70
     1
102
RTVSPropertyOp31
 70
     1
102
RTVSPropertyOp32
 70
     1
  0
XRECORD
  5
287
102
{ACAD_REACTORS
330
286
102
}
330
286
100
AcDbXrecord
280
     1
102
RTVSPropertyOp0
 70
     1
102
RTVSPropertyOp1
 70
     1
102
RTVSPropertyOp2
 70
     1
102
RTVSPropertyOp3
 70
     1
102
RTVSPropertyOp4
 70
     1
102
RTVSPropertyOp5
 70
     1
102
RTVSPropertyOp6
 70
     1
102
RTVSPropertyOp7
 70
     1
102
RTVSPropertyOp8
 70
     1
102
RTVSPropertyOp9
 70
     1
102
RTVSPropertyOp10
 70
     1
102
RTVSPropertyOp11
 70
     1
102
RTVSPropertyOp12
 70
     1
102
RTVSPropertyOp13
 70
     1
102
RTVSPropertyOp14
 70
     1
102
RTVSPropertyOp15
 70
     1
102
RTVSPropertyOp16
 70
     1
102
RTVSPropertyOp17
 70
     1
102
RTVSPropertyOp18
 70
     1
102
RTVSPropertyOp19
 70
     1
102
RTVSPropertyOp20
 70
     1
102
RTVSPropertyOp21
 70
     1
102
RTVSPropertyOp22
 70
     1
102
RTVSPropertyOp23
 70
     1
102
RTVSPropertyOp24
 70
     1
102
RTVSPropertyOp25
 70
     1
102
RTVSPropertyOp26
 70
     1
102
RTVSPropertyOp27
 70
     1
102
RTVSPropertyOp28
 70
     1
102
RTVSPropertyOp29
 70
     1
102
RTVSPropertyOp30
 70
     1
102
RTVSPropertyOp31
 70
     1
102
RTVSPropertyOp32
 70
     1
  0
XRECORD
  5
2A1
102
{ACAD_REACTORS
330
2A0
102
}
330
2A0
100
AcDbXrecord
280
     1
102
RTVSPropertyOp0
 70
     0
102
RTVSPropertyOp1
 70
     0
102
RTVSPropertyOp2
 70
     0
102
RTVSPropertyOp3
 70
     0
102
RTVSPropertyOp4
 70
     0
102
RTVSPropertyOp5
 70
     0
102
RTVSPropertyOp6
 70
     0
102
RTVSPropertyOp7
 70
     0
102
RTVSPropertyOp8
 70
     0
102
RTVSPropertyOp9
 70
     0
102
RTVSPropertyOp10
 70
     0
102
RTVSPropertyOp11
 70
     0
102
RTVSPropertyOp12
 70
     0
102
RTVSPropertyOp13
 70
     0
102
RTVSPropertyOp14
 70
     2
102
RTVSPropertyOp15
 70
     0
102
RTVSPropertyOp16
 70
     0
102
RTVSPropertyOp17
 70
     0
102
RTVSPropertyOp18
 70
     0
102
RTVSPropertyOp19
 70
     0
102
RTVSPropertyOp20
 70
     0
102
RTVSPropertyOp21
 70
     0
102
RTVSPropertyOp22
 70
     0
102
RTVSPropertyOp23
 70
     0
102
RTVSPropertyOp24
 70
     0
102
RTVSPropertyOp25
 70
     0
102
RTVSPropertyOp26
 70
     0
102
RTVSPropertyOp27
 70
     0
102
RTVSPropertyOp28
 70
     0
102
RTVSPropertyOp29
 70
     0
102
RTVSPropertyOp30
 70
     0
102
RTVSPropertyOp31
 70
     0
102
RTVSPropertyOp32
 70
     0
  0
XRECORD
  5
28F
102
{ACAD_REACTORS
330
28E
102
}
330
28E
100
AcDbXrecord
280
     1
102
RTVSPropertyOp0
 70
     1
102
RTVSPropertyOp1
 70
     1
102
RTVSPropertyOp2
 70
     1
102
RTVSPropertyOp3
 70
     1
102
RTVSPropertyOp4
 70
     1
102
RTVSPropertyOp5
 70
     1
102
RTVSPropertyOp6
 70
     1
102
RTVSPropertyOp7
 70
     1
102
RTVSPropertyOp8
 70
     1
102
RTVSPropertyOp9
 70
     1
102
RTVSPropertyOp10
 70
     1
102
RTVSPropertyOp11
 70
     1
102
RTVSPropertyOp12
 70
     1
102
RTVSPropertyOp13
 70
     1
102
RTVSPropertyOp14
 70
     1
102
RTVSPropertyOp15
 70
     1
102
RTVSPropertyOp16
 70
     1
102
RTVSPropertyOp17
 70
     1
102
RTVSPropertyOp18
 70
     1
102
RTVSPropertyOp19
 70
     1
102
RTVSPropertyOp20
 70
     1
102
RTVSPropertyOp21
 70
     1
102
RTVSPropertyOp22
 70
     1
102
RTVSPropertyOp23
 70
     1
102
RTVSPropertyOp24
 70
     1
102
RTVSPropertyOp25
 70
     1
102
RTVSPropertyOp26
 70
     1
102
RTVSPropertyOp27
 70
     1
102
RTVSPropertyOp28
 70
     1
102
RTVSPropertyOp29
 70
     1
102
RTVSPropertyOp30
 70
     1
102
RTVSPropertyOp31
 70
     1
102
RTVSPropertyOp32
 70
     1
  0
XRECORD
  5
279
102
{ACAD_REACTORS
330
278
102
}
330
278
100
AcDbXrecord
280
     1
102
RTVSPropertyOp0
 70
     1
102
RTVSPropertyOp1
 70
     1
102
RTVSPropertyOp2
 70
     1
102
RTVSPropertyOp3
 70
     1
102
RTVSPropertyOp4
 70
     1
102
RTVSPropertyOp5
 70
     1
102
RTVSPropertyOp6
 70
     1
102
RTVSPropertyOp7
 70
     1
102
RTVSPropertyOp8
 70
     1
102
RTVSPropertyOp9
 70
     1
102
RTVSPropertyOp10
 70
     1
102
RTVSPropertyOp11
 70
     1
102
RTVSPropertyOp12
 70
     1
102
RTVSPropertyOp13
 70
     1
102
RTVSPropertyOp14
 70
     1
102
RTVSPropertyOp15
 70
     1
102
RTVSPropertyOp16
 70
     1
102
RTVSPropertyOp17
 70
     1
102
RTVSPropertyOp18
 70
     1
102
RTVSPropertyOp19
 70
     1
102
RTVSPropertyOp20
 70
     1
102
RTVSPropertyOp21
 70
     1
102
RTVSPropertyOp22
 70
     1
102
RTVSPropertyOp23
 70
     1
102
RTVSPropertyOp24
 70
     1
102
RTVSPropertyOp25
 70
     1
102
RTVSPropertyOp26
 70
     1
102
RTVSPropertyOp27
 70
     1
102
RTVSPropertyOp28
 70
     1
102
RTVSPropertyOp29
 70
     1
102
RTVSPropertyOp30
 70
     1
102
RTVSPropertyOp31
 70
     1
102
RTVSPropertyOp32
 70
     1
  0
XRECORD
  5
27B
102
{ACAD_REACTORS
330
27A
102
}
330
27A
100
AcDbXrecord
280
     1
102
RTVSPropertyOp0
 70
     1
102
RTVSPropertyOp1
 70
     1
102
RTVSPropertyOp2
 70
     1
102
RTVSPropertyOp3
 70
     1
102
RTVSPropertyOp4
 70
     1
102
RTVSPropertyOp5
 70
     1
102
RTVSPropertyOp6
 70
     1
102
RTVSPropertyOp7
 70
     1
102
RTVSPropertyOp8
 70
     1
102
RTVSPropertyOp9
 70
     1
102
RTVSPropertyOp10
 70
     1
102
RTVSPropertyOp11
 70
     1
102
RTVSPropertyOp12
 70
     1
102
RTVSPropertyOp13
 70
     1
102
RTVSPropertyOp14
 70
     1
102
RTVSPropertyOp15
 70
     1
102
RTVSPropertyOp16
 70
     1
102
RTVSPropertyOp17
 70
     1
102
RTVSPropertyOp18
 70
     1
102
RTVSPropertyOp19
 70
     1
102
RTVSPropertyOp20
 70
     1
102
RTVSPropertyOp21
 70
     1
102
RTVSPropertyOp22
 70
     1
102
RTVSPropertyOp23
 70
     1
102
RTVSPropertyOp24
 70
     1
102
RTVSPropertyOp25
 70
     1
102
RTVSPropertyOp26
 70
     1
102
RTVSPropertyOp27
 70
     1
102
RTVSPropertyOp28
 70
     1
102
RTVSPropertyOp29
 70
     1
102
RTVSPropertyOp30
 70
     1
102
RTVSPropertyOp31
 70
     1
102
RTVSPropertyOp32
 70
     1
  0
XRECORD
  5
27D
102
{ACAD_REACTORS
330
27C
102
}
330
27C
100
AcDbXrecord
280
     1
102
RTVSPropertyOp0
 70
     1
102
RTVSPropertyOp1
 70
     1
102
RTVSPropertyOp2
 70
     1
102
RTVSPropertyOp3
 70
     1
102
RTVSPropertyOp4
 70
     1
102
RTVSPropertyOp5
 70
     1
102
RTVSPropertyOp6
 70
     1
102
RTVSPropertyOp7
 70
     1
102
RTVSPropertyOp8
 70
     1
102
RTVSPropertyOp9
 70
     1
102
RTVSPropertyOp10
 70
     1
102
RTVSPropertyOp11
 70
     1
102
RTVSPropertyOp12
 70
     1
102
RTVSPropertyOp13
 70
     1
102
RTVSPropertyOp14
 70
     1
102
RTVSPropertyOp15
 70
     1
102
RTVSPropertyOp16
 70
     1
102
RTVSPropertyOp17
 70
     1
102
RTVSPropertyOp18
 70
     1
102
RTVSPropertyOp19
 70
     1
102
RTVSPropertyOp20
 70
     1
102
RTVSPropertyOp21
 70
     1
102
RTVSPropertyOp22
 70
     1
102
RTVSPropertyOp23
 70
     1
102
RTVSPropertyOp24
 70
     1
102
RTVSPropertyOp25
 70
     1
102
RTVSPropertyOp26
 70
     1
102
RTVSPropertyOp27
 70
     1
102
RTVSPropertyOp28
 70
     1
102
RTVSPropertyOp29
 70
     1
102
RTVSPropertyOp30
 70
     1
102
RTVSPropertyOp31
 70
     1
102
RTVSPropertyOp32
 70
     1
  0
XRECORD
  5
27F
102
{ACAD_REACTORS
330
27E
102
}
330
27E
100
AcDbXrecord
280
     1
102
RTVSPropertyOp0
 70
     1
102
RTVSPropertyOp1
 70
     1
102
RTVSPropertyOp2
 70
     1
102
RTVSPropertyOp3
 70
     1
102
RTVSPropertyOp4
 70
     1
102
RTVSPropertyOp5
 70
     1
102
RTVSPropertyOp6
 70
     1
102
RTVSPropertyOp7
 70
     1
102
RTVSPropertyOp8
 70
     1
102
RTVSPropertyOp9
 70
     1
102
RTVSPropertyOp10
 70
     1
102
RTVSPropertyOp11
 70
     1
102
RTVSPropertyOp12
 70
     1
102
RTVSPropertyOp13
 70
     1
102
RTVSPropertyOp14
 70
     1
102
RTVSPropertyOp15
 70
     1
102
RTVSPropertyOp16
 70
     1
102
RTVSPropertyOp17
 70
     1
102
RTVSPropertyOp18
 70
     1
102
RTVSPropertyOp19
 70
     1
102
RTVSPropertyOp20
 70
     1
102
RTVSPropertyOp21
 70
     1
102
RTVSPropertyOp22
 70
     1
102
RTVSPropertyOp23
 70
     1
102
RTVSPropertyOp24
 70
     1
102
RTVSPropertyOp25
 70
     1
102
RTVSPropertyOp26
 70
     1
102
RTVSPropertyOp27
 70
     1
102
RTVSPropertyOp28
 70
     1
102
RTVSPropertyOp29
 70
     1
102
RTVSPropertyOp30
 70
     1
102
RTVSPropertyOp31
 70
     1
102
RTVSPropertyOp32
 70
     1
  0
XRECORD
  5
283
102
{ACAD_REACTORS
330
282
102
}
330
282
100
AcDbXrecord
280
     1
102
RTVSPropertyOp0
 70
     1
102
RTVSPropertyOp1
 70
     1
102
RTVSPropertyOp2
 70
     1
102
RTVSPropertyOp3
 70
     1
102
RTVSPropertyOp4
 70
     1
102
RTVSPropertyOp5
 70
     1
102
RTVSPropertyOp6
 70
     1
102
RTVSPropertyOp7
 70
     1
102
RTVSPropertyOp8
 70
     1
102
RTVSPropertyOp9
 70
     1
102
RTVSPropertyOp10
 70
     1
102
RTVSPropertyOp11
 70
     1
102
RTVSPropertyOp12
 70
     1
102
RTVSPropertyOp13
 70
     1
102
RTVSPropertyOp14
 70
     1
102
RTVSPropertyOp15
 70
     1
102
RTVSPropertyOp16
 70
     1
102
RTVSPropertyOp17
 70
     1
102
RTVSPropertyOp18
 70
     1
102
RTVSPropertyOp19
 70
     1
102
RTVSPropertyOp20
 70
     1
102
RTVSPropertyOp21
 70
     1
102
RTVSPropertyOp22
 70
     1
102
RTVSPropertyOp23
 70
     1
102
RTVSPropertyOp24
 70
     1
102
RTVSPropertyOp25
 70
     1
102
RTVSPropertyOp26
 70
     1
102
RTVSPropertyOp27
 70
     1
102
RTVSPropertyOp28
 70
     1
102
RTVSPropertyOp29
 70
     1
102
RTVSPropertyOp30
 70
     1
102
RTVSPropertyOp31
 70
     1
102
RTVSPropertyOp32
 70
     1
  0
XRECORD
  5
29D
102
{ACAD_REACTORS
330
29C
102
}
330
29C
100
AcDbXrecord
280
     1
102
RTVSPropertyOp0
 70
     0
102
RTVSPropertyOp1
 70
     0
102
RTVSPropertyOp2
 70
     0
102
RTVSPropertyOp3
 70
     0
102
RTVSPropertyOp4
 70
     0
102
RTVSPropertyOp5
 70
     0
102
RTVSPropertyOp6
 70
     0
102
RTVSPropertyOp7
 70
     0
102
RTVSPropertyOp8
 70
     0
102
RTVSPropertyOp9
 70
     0
102
RTVSPropertyOp10
 70
     0
102
RTVSPropertyOp11
 70
     0
102
RTVSPropertyOp12
 70
     0
102
RTVSPropertyOp13
 70
     0
102
RTVSPropertyOp14
 70
     2
102
RTVSPropertyOp15
 70
     0
102
RTVSPropertyOp16
 70
     0
102
RTVSPropertyOp17
 70
     0
102
RTVSPropertyOp18
 70
     0
102
RTVSPropertyOp19
 70
     0
102
RTVSPropertyOp20
 70
     0
102
RTVSPropertyOp21
 70
     0
102
RTVSPropertyOp22
 70
     0
102
RTVSPropertyOp23
 70
     0
102
RTVSPropertyOp24
 70
     0
102
RTVSPropertyOp25
 70
     0
102
RTVSPropertyOp26
 70
     0
102
RTVSPropertyOp27
 70
     0
102
RTVSPropertyOp28
 70
     0
102
RTVSPropertyOp29
 70
     0
102
RTVSPropertyOp30
 70
     0
102
RTVSPropertyOp31
 70
     0
102
RTVSPropertyOp32
 70
     0
  0
XRECORD
  5
28D
102
{ACAD_REACTORS
330
28C
102
}
330
28C
100
AcDbXrecord
280
     1
102
RTVSPropertyOp0
 70
     1
102
RTVSPropertyOp1
 70
     1
102
RTVSPropertyOp2
 70
     1
102
RTVSPropertyOp3
 70
     1
102
RTVSPropertyOp4
 70
     1
102
RTVSPropertyOp5
 70
     1
102
RTVSPropertyOp6
 70
     1
102
RTVSPropertyOp7
 70
     1
102
RTVSPropertyOp8
 70
     1
102
RTVSPropertyOp9
 70
     1
102
RTVSPropertyOp10
 70
     1
102
RTVSPropertyOp11
 70
     1
102
RTVSPropertyOp12
 70
     1
102
RTVSPropertyOp13
 70
     1
102
RTVSPropertyOp14
 70
     1
102
RTVSPropertyOp15
 70
     1
102
RTVSPropertyOp16
 70
     1
102
RTVSPropertyOp17
 70
     1
102
RTVSPropertyOp18
 70
     1
102
RTVSPropertyOp19
 70
     1
102
RTVSPropertyOp20
 70
     1
102
RTVSPropertyOp21
 70
     1
102
RTVSPropertyOp22
 70
     1
102
RTVSPropertyOp23
 70
     1
102
RTVSPropertyOp24
 70
     1
102
RTVSPropertyOp25
 70
     1
102
RTVSPropertyOp26
 70
     1
102
RTVSPropertyOp27
 70
     1
102
RTVSPropertyOp28
 70
     1
102
RTVSPropertyOp29
 70
     1
102
RTVSPropertyOp30
 70
     1
102
RTVSPropertyOp31
 70
     1
102
RTVSPropertyOp32
 70
     1
  0
XRECORD
  5
29F
102
{ACAD_REACTORS
330
29E
102
}
330
29E
100
AcDbXrecord
280
     1
102
RTVSPropertyOp0
 70
     0
102
RTVSPropertyOp1
 70
     0
102
RTVSPropertyOp2
 70
     0
102
RTVSPropertyOp3
 70
     0
102
RTVSPropertyOp4
 70
     0
102
RTVSPropertyOp5
 70
     0
102
RTVSPropertyOp6
 70
     0
102
RTVSPropertyOp7
 70
     0
102
RTVSPropertyOp8
 70
     0
102
RTVSPropertyOp9
 70
     0
102
RTVSPropertyOp10
 70
     0
102
RTVSPropertyOp11
 70
     0
102
RTVSPropertyOp12
 70
     0
102
RTVSPropertyOp13
 70
     0
102
RTVSPropertyOp14
 70
     2
102
RTVSPropertyOp15
 70
     0
102
RTVSPropertyOp16
 70
     0
102
RTVSPropertyOp17
 70
     0
102
RTVSPropertyOp18
 70
     0
102
RTVSPropertyOp19
 70
     0
102
RTVSPropertyOp20
 70
     0
102
RTVSPropertyOp21
 70
     0
102
RTVSPropertyOp22
 70
     0
102
RTVSPropertyOp23
 70
     0
102
RTVSPropertyOp24
 70
     0
102
RTVSPropertyOp25
 70
     0
102
RTVSPropertyOp26
 70
     0
102
RTVSPropertyOp27
 70
     0
102
RTVSPropertyOp28
 70
     0
102
RTVSPropertyOp29
 70
     0
102
RTVSPropertyOp30
 70
     0
102
RTVSPropertyOp31
 70
     0
102
RTVSPropertyOp32
 70
     0
  0
XRECORD
  5
275
102
{ACAD_REACTORS
330
274
102
}
330
274
100
AcDbXrecord
280
     1
102
RTVSPropertyOp0
 70
     1
102
RTVSPropertyOp1
 70
     1
102
RTVSPropertyOp2
 70
     1
102
RTVSPropertyOp3
 70
     1
102
RTVSPropertyOp4
 70
     1
102
RTVSPropertyOp5
 70
     1
102
RTVSPropertyOp6
 70
     1
102
RTVSPropertyOp7
 70
     1
102
RTVSPropertyOp8
 70
     1
102
RTVSPropertyOp9
 70
     1
102
RTVSPropertyOp10
 70
     1
102
RTVSPropertyOp11
 70
     1
102
RTVSPropertyOp12
 70
     1
102
RTVSPropertyOp13
 70
     1
102
RTVSPropertyOp14
 70
     1
102
RTVSPropertyOp15
 70
     1
102
RTVSPropertyOp16
 70
     1
102
RTVSPropertyOp17
 70
     1
102
RTVSPropertyOp18
 70
     1
102
RTVSPropertyOp19
 70
     1
102
RTVSPropertyOp20
 70
     1
102
RTVSPropertyOp21
 70
     1
102
RTVSPropertyOp22
 70
     1
102
RTVSPropertyOp23
 70
     1
102
RTVSPropertyOp24
 70
     1
102
RTVSPropertyOp25
 70
     1
102
RTVSPropertyOp26
 70
     1
102
RTVSPropertyOp27
 70
     1
102
RTVSPropertyOp28
 70
     1
102
RTVSPropertyOp29
 70
     1
102
RTVSPropertyOp30
 70
     1
102
RTVSPropertyOp31
 70
     1
102
RTVSPropertyOp32
 70
     1
  0
XRECORD
  5
29B
102
{ACAD_REACTORS
330
29A
102
}
330
29A
100
AcDbXrecord
280
     1
102
RTVSPropertyOp0
 70
     1
102
RTVSPropertyOp1
 70
     1
102
RTVSPropertyOp2
 70
     1
102
RTVSPropertyOp3
 70
     1
102
RTVSPropertyOp4
 70
     1
102
RTVSPropertyOp5
 70
     1
102
RTVSPropertyOp6
 70
     1
102
RTVSPropertyOp7
 70
     1
102
RTVSPropertyOp8
 70
     1
102
RTVSPropertyOp9
 70
     1
102
RTVSPropertyOp10
 70
     1
102
RTVSPropertyOp11
 70
     1
102
RTVSPropertyOp12
 70
     1
102
RTVSPropertyOp13
 70
     1
102
RTVSPropertyOp14
 70
     1
102
RTVSPropertyOp15
 70
     1
102
RTVSPropertyOp16
 70
     1
102
RTVSPropertyOp17
 70
     1
102
RTVSPropertyOp18
 70
     1
102
RTVSPropertyOp19
 70
     1
102
RTVSPropertyOp20
 70
     1
102
RTVSPropertyOp21
 70
     1
102
RTVSPropertyOp22
 70
     1
102
RTVSPropertyOp23
 70
     1
102
RTVSPropertyOp24
 70
     1
102
RTVSPropertyOp25
 70
     1
102
RTVSPropertyOp26
 70
     1
102
RTVSPropertyOp27
 70
     1
102
RTVSPropertyOp28
 70
     1
102
RTVSPropertyOp29
 70
     1
102
RTVSPropertyOp30
 70
     1
102
RTVSPropertyOp31
 70
     1
102
RTVSPropertyOp32
 70
     1
  0
XRECORD
  5
299
102
{ACAD_REACTORS
330
298
102
}
330
298
100
AcDbXrecord
280
     1
102
RTVSPropertyOp0
 70
     1
102
RTVSPropertyOp1
 70
     1
102
RTVSPropertyOp2
 70
     1
102
RTVSPropertyOp3
 70
     1
102
RTVSPropertyOp4
 70
     1
102
RTVSPropertyOp5
 70
     1
102
RTVSPropertyOp6
 70
     1
102
RTVSPropertyOp7
 70
     1
102
RTVSPropertyOp8
 70
     1
102
RTVSPropertyOp9
 70
     1
102
RTVSPropertyOp10
 70
     1
102
RTVSPropertyOp11
 70
     1
102
RTVSPropertyOp12
 70
     1
102
RTVSPropertyOp13
 70
     1
102
RTVSPropertyOp14
 70
     1
102
RTVSPropertyOp15
 70
     1
102
RTVSPropertyOp16
 70
     1
102
RTVSPropertyOp17
 70
     1
102
RTVSPropertyOp18
 70
     1
102
RTVSPropertyOp19
 70
     1
102
RTVSPropertyOp20
 70
     1
102
RTVSPropertyOp21
 70
     1
102
RTVSPropertyOp22
 70
     1
102
RTVSPropertyOp23
 70
     1
102
RTVSPropertyOp24
 70
     1
102
RTVSPropertyOp25
 70
     1
102
RTVSPropertyOp26
 70
     1
102
RTVSPropertyOp27
 70
     1
102
RTVSPropertyOp28
 70
     1
102
RTVSPropertyOp29
 70
     1
102
RTVSPropertyOp30
 70
     1
102
RTVSPropertyOp31
 70
     1
102
RTVSPropertyOp32
 70
     1
  0
XRECORD
  5
293
102
{ACAD_REACTORS
330
292
102
}
330
292
100
AcDbXrecord
280
     1
102
RTVSPropertyOp0
 70
     1
102
RTVSPropertyOp1
 70
     1
102
RTVSPropertyOp2
 70
     1
102
RTVSPropertyOp3
 70
     1
102
RTVSPropertyOp4
 70
     1
102
RTVSPropertyOp5
 70
     1
102
RTVSPropertyOp6
 70
     1
102
RTVSPropertyOp7
 70
     1
102
RTVSPropertyOp8
 70
     1
102
RTVSPropertyOp9
 70
     1
102
RTVSPropertyOp10
 70
     1
102
RTVSPropertyOp11
 70
     1
102
RTVSPropertyOp12
 70
     1
102
RTVSPropertyOp13
 70
     1
102
RTVSPropertyOp14
 70
     1
102
RTVSPropertyOp15
 70
     1
102
RTVSPropertyOp16
 70
     1
102
RTVSPropertyOp17
 70
     1
102
RTVSPropertyOp18
 70
     1
102
RTVSPropertyOp19
 70
     1
102
RTVSPropertyOp20
 70
     1
102
RTVSPropertyOp21
 70
     1
102
RTVSPropertyOp22
 70
     1
102
RTVSPropertyOp23
 70
     1
102
RTVSPropertyOp24
 70
     1
102
RTVSPropertyOp25
 70
     1
102
RTVSPropertyOp26
 70
     1
102
RTVSPropertyOp27
 70
     1
102
RTVSPropertyOp28
 70
     1
102
RTVSPropertyOp29
 70
     1
102
RTVSPropertyOp30
 70
     1
102
RTVSPropertyOp31
 70
     1
102
RTVSPropertyOp32
 70
     1
  0
XRECORD
  5
295
102
{ACAD_REACTORS
330
294
102
}
330
294
100
AcDbXrecord
280
     1
102
RTVSPropertyOp0
 70
     1
102
RTVSPropertyOp1
 70
     1
102
RTVSPropertyOp2
 70
     1
102
RTVSPropertyOp3
 70
     1
102
RTVSPropertyOp4
 70
     1
102
RTVSPropertyOp5
 70
     1
102
RTVSPropertyOp6
 70
     1
102
RTVSPropertyOp7
 70
     1
102
RTVSPropertyOp8
 70
     1
102
RTVSPropertyOp9
 70
     1
102
RTVSPropertyOp10
 70
     1
102
RTVSPropertyOp11
 70
     1
102
RTVSPropertyOp12
 70
     1
102
RTVSPropertyOp13
 70
     1
102
RTVSPropertyOp14
 70
     1
102
RTVSPropertyOp15
 70
     1
102
RTVSPropertyOp16
 70
     1
102
RTVSPropertyOp17
 70
     1
102
RTVSPropertyOp18
 70
     1
102
RTVSPropertyOp19
 70
     1
102
RTVSPropertyOp20
 70
     1
102
RTVSPropertyOp21
 70
     1
102
RTVSPropertyOp22
 70
     1
102
RTVSPropertyOp23
 70
     1
102
RTVSPropertyOp24
 70
     1
102
RTVSPropertyOp25
 70
     1
102
RTVSPropertyOp26
 70
     1
102
RTVSPropertyOp27
 70
     1
102
RTVSPropertyOp28
 70
     1
102
RTVSPropertyOp29
 70
     1
102
RTVSPropertyOp30
 70
     1
102
RTVSPropertyOp31
 70
     1
102
RTVSPropertyOp32
 70
     1
  0
XRECORD
  5
28B
102
{ACAD_REACTORS
330
28A
102
}
330
28A
100
AcDbXrecord
280
     1
102
RTVSPropertyOp0
 70
     1
102
RTVSPropertyOp1
 70
     1
102
RTVSPropertyOp2
 70
     1
102
RTVSPropertyOp3
 70
     1
102
RTVSPropertyOp4
 70
     1
102
RTVSPropertyOp5
 70
     1
102
RTVSPropertyOp6
 70
     1
102
RTVSPropertyOp7
 70
     1
102
RTVSPropertyOp8
 70
     1
102
RTVSPropertyOp9
 70
     1
102
RTVSPropertyOp10
 70
     1
102
RTVSPropertyOp11
 70
     1
102
RTVSPropertyOp12
 70
     1
102
RTVSPropertyOp13
 70
     1
102
RTVSPropertyOp14
 70
     1
102
RTVSPropertyOp15
 70
     1
102
RTVSPropertyOp16
 70
     1
102
RTVSPropertyOp17
 70
     1
102
RTVSPropertyOp18
 70
     1
102
RTVSPropertyOp19
 70
     1
102
RTVSPropertyOp20
 70
     1
102
RTVSPropertyOp21
 70
     1
102
RTVSPropertyOp22
 70
     1
102
RTVSPropertyOp23
 70
     1
102
RTVSPropertyOp24
 70
     1
102
RTVSPropertyOp25
 70
     1
102
RTVSPropertyOp26
 70
     1
102
RTVSPropertyOp27
 70
     1
102
RTVSPropertyOp28
 70
     1
102
RTVSPropertyOp29
 70
     1
102
RTVSPropertyOp30
 70
     1
102
RTVSPropertyOp31
 70
     1
102
RTVSPropertyOp32
 70
     1
  0
XRECORD
  5
277
102
{ACAD_REACTORS
330
276
102
}
330
276
100
AcDbXrecord
280
     1
102
RTVSPropertyOp0
 70
     1
102
RTVSPropertyOp1
 70
     1
102
RTVSPropertyOp2
 70
     1
102
RTVSPropertyOp3
 70
     1
102
RTVSPropertyOp4
 70
     1
102
RTVSPropertyOp5
 70
     1
102
RTVSPropertyOp6
 70
     1
102
RTVSPropertyOp7
 70
     1
102
RTVSPropertyOp8
 70
     1
102
RTVSPropertyOp9
 70
     1
102
RTVSPropertyOp10
 70
     1
102
RTVSPropertyOp11
 70
     1
102
RTVSPropertyOp12
 70
     1
102
RTVSPropertyOp13
 70
     1
102
RTVSPropertyOp14
 70
     1
102
RTVSPropertyOp15
 70
     1
102
RTVSPropertyOp16
 70
     1
102
RTVSPropertyOp17
 70
     1
102
RTVSPropertyOp18
 70
     1
102
RTVSPropertyOp19
 70
     1
102
RTVSPropertyOp20
 70
     1
102
RTVSPropertyOp21
 70
     1
102
RTVSPropertyOp22
 70
     1
102
RTVSPropertyOp23
 70
     1
102
RTVSPropertyOp24
 70
     1
102
RTVSPropertyOp25
 70
     1
102
RTVSPropertyOp26
 70
     1
102
RTVSPropertyOp27
 70
     1
102
RTVSPropertyOp28
 70
     1
102
RTVSPropertyOp29
 70
     1
102
RTVSPropertyOp30
 70
     1
102
RTVSPropertyOp31
 70
     1
102
RTVSPropertyOp32
 70
     1
  0
XRECORD
  5
297
102
{ACAD_REACTORS
330
296
102
}
330
296
100
AcDbXrecord
280
     1
102
RTVSPropertyOp0
 70
     1
102
RTVSPropertyOp1
 70
     1
102
RTVSPropertyOp2
 70
     1
102
RTVSPropertyOp3
 70
     1
102
RTVSPropertyOp4
 70
     1
102
RTVSPropertyOp5
 70
     1
102
RTVSPropertyOp6
 70
     1
102
RTVSPropertyOp7
 70
     1
102
RTVSPropertyOp8
 70
     1
102
RTVSPropertyOp9
 70
     1
102
RTVSPropertyOp10
 70
     1
102
RTVSPropertyOp11
 70
     1
102
RTVSPropertyOp12
 70
     1
102
RTVSPropertyOp13
 70
     1
102
RTVSPropertyOp14
 70
     1
102
RTVSPropertyOp15
 70
     1
102
RTVSPropertyOp16
 70
     1
102
RTVSPropertyOp17
 70
     1
102
RTVSPropertyOp18
 70
     1
102
RTVSPropertyOp19
 70
     1
102
RTVSPropertyOp20
 70
     1
102
RTVSPropertyOp21
 70
     1
102
RTVSPropertyOp22
 70
     1
102
RTVSPropertyOp23
 70
     1
102
RTVSPropertyOp24
 70
     1
102
RTVSPropertyOp25
 70
     1
102
RTVSPropertyOp26
 70
     1
102
RTVSPropertyOp27
 70
     1
102
RTVSPropertyOp28
 70
     1
102
RTVSPropertyOp29
 70
     1
102
RTVSPropertyOp30
 70
     1
102
RTVSPropertyOp31
 70
     1
102
RTVSPropertyOp32
 70
     1
  0
ENDSEC
  0
EOF
